PrimaNota.ru - самый крупный в мире бесплатный архив песенных текстов, аккордов, табулатур и нот


Misc Soundtrack - Strange Magic - Mistreated - аккорды и текст, видео

Регистрация Запомнить меня
Войти через:  Facebook Google Twitter Vk Yandex Mail.ru

Misc Soundtrack - Strange Magic - Mistreated - аккорды и текст, видео

Печатать
Просмотров: 175
Strange Magic - Mistreated
Misc Soundtrack
Performed by Alan Cumming
From Lucasfilm's "Strange Magic"
Find the chord from chordify.net, then i fixed a little bit so the chord heard better :)
If there are corrections, please tell me
note: there's a bit trouble at the second part tab of the intro, cos it's a bit hard to play
so I simpled it XD
Enjoy :)

Strange Magic OST - Mistreated

Intro: F#m        A - E

e|---5---2--------0--2------0--2------7/9---7--|
B|-------------2---------2---------------------|
G|---------------------------------------------|
D|---------------------------------------------|
A|---------------------------------------------|
E|---------------------------------------------|

e|---5---2--------0--2------0--2------4/5------|
B|-------------2---------2---------------------|
G|---------------------------------------------|
D|---------------------------------------------|
A|---------------------------------------------|
E|---------------------------------------------|

e|---5---2--------0--2------0--2------7/9---7--|
B|-------------2---------2---------------------|
G|---------------------------------------------|
D|---------------------------------------------|
A|---------------------------------------------|
E|---------------------------------------------|

e|---5---2--------0--2------0--2------7/9---7--9----|
B|-------------2---------2--------------------------|
G|--------------------------------------------------|
D|--------------------------------------------------|
A|--------------------------------------------------|
E|--------------------------------------------------|

         F#m          A    E    F#m  
I've been mistreated, I've been abused.
A  E           F#m
  I've been trespassed and invaded 
A E               F#m
  And I am not amused

          A         B
I've been insulted, disrespected
             F#m
I've been mistreated

Instrumental: F#m   Bm  F#m    C#m  F#m 3x

          A         B
I've been insulted, disrespected
             F#m
I've been mistreated 

          A         B
I've been insulted, disrespected
             F#m
I've been mistreated
Добавлено: 23.09.2015
Другие материалы по этой песне:
  • Аккорды и текст

Страница создана 23.09.2015
http://primanota.ru/misc-soundtrack/strange-magic-mistreated-chords.htm
Привет, Гость.
Предлагаем пройти революционный курс по гитаре.
Подарок от PrimaNota.Ru, забирай!