PrimaNota.ru - самый крупный в мире бесплатный архив песенных текстов, аккордов, табулатур и нот


Misc Soundtrack - Sound City - Time Slowing Down - таба, видео

Регистрация Запомнить меня
Войти через:  Facebook Google Twitter Vk Yandex Mail.ru

Misc Soundtrack - Sound City - Time Slowing Down - таба, видео

Печатать
Просмотров: 120
Sound City
Time Slowing Down

Standard Tuning
http://www.soundcitymovie.com


Guitar Intro:

E|------------------------------------------------|
B|--0---0---0---0---0-------0-----0-----0---------|
G|---0---0---0---0---0-------0-----0-----0-77777--|
D|-----------------------------------7h9---77777--|  x2
A|-----2---5---7b--2-----------5h7---------55555--|
E|-3-------------------7p5h7----------------------|

Verse 1:

E|-------------------------------------|
B|-------------------------------------|
G|------------------------------77777--|
D|------------------------7h999-77777--|
A|---2-5-7b-2-------5h777-------55555--|
E|-3----------5h777--------------------|


Verse 2:
Guitar intro again, but changed so that there is a bend at the end of every phrase in 
order to go back into the start of the next phrase.

E|---------------------------------------------|
B|--0---0---0---0---0-------0-----0-----0------|
G|---0---0---0---0---0-------0-----0-----0-----|
D|-----------------------------------7h9-------|  x6
A|-----2---5---7b--2-----------5h7-------------|
E|-3-------------------7p5h7---------------2b--|

Chorus:
Listen to the song to know when to interchange with single strums and a flow of strums
E|---------------------|
B|------------------2--|
G|--7-6-5-4-2-----4-2--|
D|--x-x-x-x-2-2-5-x-2--|  x4
A|--5-4-3-2-0-2-5-2-0--|
E|------------0-3------|
Добавлено: 16.08.2013
Другие материалы по этой песне:
  • Аккорды и текст

Страница создана 16.08.2013
http://primanota.ru/misc-soundtrack/sound-city-time-slowing-down-chords.htm
Привет, Гость.
Предлагаем пройти революционный курс по гитаре.
Подарок от PrimaNota.Ru, забирай!