PrimaNota.ru - самый крупный в мире бесплатный архив песенных текстов, аккордов, табулатур и нот


Misc Soundtrack - Scott Pilgrim Vs The World - Bass Battle - бас-таба, видео

Регистрация Запомнить меня
Войти через:  Facebook Google Twitter Vk Yandex Mail.ru

Misc Soundtrack - Scott Pilgrim Vs The World - Bass Battle - бас-таба, видео

Печатать
Просмотров: 221
Уроки эстрадного вокала в Санкт-Петербурге
-------------------------------------------------------------------------------
                             Bass Battle - Scott Pilgrim Soundtrack
-------------------------------------------------------------------------------
Tabbed by: Manwich34 (Owen) 
E-mail: manwich.owen@gmail.com

Tuning: EADG (Standard)

Lots of distortion
Scott: part 1 (played in the background of Todd: part 2)
G|------------------------------------------------------------------------------------|
D|------------------------------------------------------------------------------------|
A|-------------------------------------------------------5-5-5------------------------|
E|-7-7-7-7-7-7-5-7-7-7-7-7-7-5-7-7-7-7-7-7-5-7-7-7-7-7-7-------5----------------------|
Todd: part 2
G|------------------------------------------------------------------------------------|
D|------------------------------------------------------------------------------------|
A|--12h14-14-12h14-14-12h14-14-14-14-12-------12h14-14-12h14-14-12h14-14-14-----------|
E|--------------------------------------14-12-----------------------------------------|

G|----------------------------------------------14------------------------------------|
D|-14b-12---------------------------------12h14---------------------------------------|
A|-------12h14-14-12h14-14-12h14-14-14-14---------------------------------------------|
E|------------------------------------------------------------------------------------|
Scott: part 3 (played in the background of Todd: part 4)
G|------------------------------------------------------------------------------------|
D|------------------------------------------------------------------------------------|
A|-6-6-6-9-9-9-6-6-6------------------------------------------------------------------|
E|-------------------6-6-6------------------------------------------------------------|
Todd: part 4
G|----------------------11------------11----------------------------------------------|
D|-----1/13-1313-1111-13--1313-1111-13---13131113-11-13131113-11------11-13-----11-13-|
A|-x-x-1/13------------------------------------------------------11-13-----11-13------|
E|------------------------------------------------------------------------------------|
Scott: part 5 (played in the background of Todd: part 6)
G|------------------------------------------------------------------------------------|
D|-13-13-12-12-11-11-10-9-------------------------------------------------------------|
A|------------------------------------------------------------------------------------|
E|------------------------------------------------------------------------------------|
Todd: part 6
G|-1--1-1--3--3-3-4-3-4-6-8-6-4-3-1-1-1-1-1-------------------------------------------|
D|---------------------------------4-4-4-4-4------------------------------------------|
A|------------------------------------------------------------------------------------|
E|------------------------------------------------------------------------------------|
                        
G|------------------------------------------------------------------------------------|
D|-666655446666554466665*54466665544--------------------------------------------------|
A|------------------------------------------------------------------------------------|
E|------------------------------------------------------------------------------------|
*Scott stops playing around here


| /  slide up
| \  slide down
| h  hammer-on
| p  pull-off
| ~  vibrato
| +  harmonic
| x  Mute note
===============================================================================
Добавлено: 26.08.2015
Другие материалы по этой песне:

Страница создана 28.03.2012
http://primanota.ru/misc-soundtrack/scott-pilgrim-vs-the-world-bass-battle-chords.htm
Привет, Гость.
Предлагаем пройти революционный курс по гитаре.
Подарок от PrimaNota.Ru, забирай!