PrimaNota.ru - самый крупный в мире бесплатный архив песенных текстов, аккордов, табулатур и нот


Misc Soundtrack - Schlindlers List - таба, видео

Регистрация Запомнить меня
Войти через:  Facebook Google Twitter Vk Yandex Mail.ru

Misc Soundtrack - Schlindlers List - таба, видео

Печатать
Просмотров: 117
Уроки эстрадного вокала в Санкт-Петербурге
          Theme from Schlindler's List

             Composed by John Williams
           Arranged for Guitar by John Williams
         Album: John Williams Plays the Movies


This piece is very demanding on the left hand, but
well worth the effort..

Tune 5th string down to G
Tune 6th string down to C


E-----|------------------------------|
B-----|--3------3--------------------|
G-----|--3---0-----0----8--7---3-----|               
D---0-|----------------------------0-|
G-----|--0---------------------------|
C-----|------------------------------|

            CI  CIII CII
E----------------------|--------------------|
B------------1--3------|-3----3----6--4--3--|
G--3-----3---2--5--3--2|-3--0---0--3-------5|
D--1-----1------3-----4|--------------------|
G-----5---------3------|-0---------5--------|
C--0-----5------------2|--------------------|


E------------------------|----------------------|
B--------------4--3------|-1----1----3----------|
G-----------5--------5--3|-0---------0--5--3--5-|
D--3-----7-----4--3------|-1--1---1--------4----|
G-----8--------3---------|-2---------2----------|
C--------5---------------|----------------------|


E-----------------|-------------------------|
B--3--------------|--1----1----3------------|
G--3-----------0--|--0---------0---5---3--2-|
D--7--5--5--4----0|--1--1---1----------4----|
G--0--------------|--2---------2------------|
C-----------------|-------------------------|


E---------------|------------------------|
B---------------|------------3-----------|
G--0----0--2----|--3----3----0--5--3--2--|
D--0-------5--4-|--1---------------4-----|
G--3--3---------|-----5---5--2-----------|
C--3-------2----|--0---------------------|


E---------------------6-|---10--8--11--10--5----6-8--|
B---------------8---8---|---11---------11-----4-----8|
G--0-----3--7-----7-----|0--------------------5-----8|
D-----0-----------------|----------------------------|
G--0--------------------|------------------0---------|
C-----------------------|----------------------------|


E---6--8--5--3--2--3-------|
B---4--------1-------3----3|
G------------2-------3----3|
D-0---------------------0--|
G--------------------------|
C--------------------------|


E----10--8--13--11--5-----6--8-----|-----------------|
B----11-----10---------4--------8--|-----6--4--3-----|
G----0-------0---------0--------8--|-----5-----4--0--|
D----------------------------------|--0--------3-----|
G--0-------------------------------|-----------0-----|
C----------------------------------|-----------------|

                                  CI   CIII
E--3-----3----4--3-------|-----------1--3-------|
B--4-----4----------4----|--4-----4--3--6--4--3-|
G-----5-----5----------0-|--------1-----3-----4-|
D------------------------|--6--3--------------0-|
G------------------------|--------3-----------0-|
C--0---------------------|--5-----------3-------|



E--3-----3-----6--4--3---|----------1--4--3--1---|
B--4-----4-----4--------6|-------3-----0-------4-|
G-----5-----5------------|-3--1-----------3------|
D--------------3---------|-------------1---------|
G------------------------|-------3---------------|
C--0---------------------|-----------------------|


E-----------------------|--3-----------------|
B--6----6----8--6--4--6-|--4--------0--1-----|
G--5---------5-----4----|--7--5--5--------0--|
D--0--6---6-------------|--------------------|
G------------0----------|--------------------|
C-----------------------|--0-----------------|

   CI       
E--1----1----3----------|--------------|
B--1------------6--4--3-|--1-----3-----|
G--1--1---1--5-----4----|--0--0--5--4--|
D-----------------------|--1-----0-----|
G------------0----------|--1-----0-----|
C--2--------------------|--------------|
E-------------------------|--------------------------|
B--4-----4-----8--6--4--3-|--1-----------1-----1--4--|
G--------5-----5-----4----|-----------0-----0--------|
D--6--3-----3--0----------|--------1-----------------|
G--------------------0----|-----0--------------------|
C--5----------------------|--0-----------------------|

 2/3III
E-----3-----4--3-----------------|
B-----4--6-----4--3-----4--6-----|
G--5--------------------------5--|
D--------------------6--------6--|
G-----------------5--------------|
C--------------------------------|

                                                   CI
E----------------------------|--3-----6------------1--|
B----4--6--3--1--0--1--------|--4--6-----9--3----4---1|
G-5--------------------0----0|--0-----7--------5------|
D----------------------1----1|-----------------------3|
G-------------------------0--|5--------------------1--|
C----------------------------|------------------------|

  CI
E--------------------3--5--6--|--9---------|
B-----1--3--4--4--6-----------|--8------2--|
G--------------0--------------|--0------0--|
D-----1-----------------------|--7------1--|
G--2--------------------------|--8---------|
C-----------------------------|---------3--|

                           
E--10-------10-----11--10--6-----|
B--11-------11------8---------3--|
G--12---12-----12---0------------|
D---0---------------0------0-----|
G---0----------------------------|
C--------------------------------|

               CX                       2/3VIII
E--6-----6--8--10----------|10-----10----13--11--10--8|
B--4-----4-----13--11--10--|11-----11----10---8-------|
G--3--5-----7--10------11--|12--12----12--8------10--8|
D--------5-----12-------0--|-0------------8-----------|
G--------------10----------|-0------------0-----------|
C--0-----5-----10---------2|--------------0-----------|

   CV                         CVIII
E--------5--8--11--10--8--6-|-8------8----10--8--6--8-|
B--6------------------------|-8------8-----8-----7----|
G-----8--------11--10--8--7-|-----8-----8--0-----5----|
D--5-----7------------------|-10-----------0----------|
G---------------------------|-------------------------|
C--5-----------10-----------|-9-----------------------|

                             CVIII
E--10---------------------|--8-----8-----10--8--6--5--|
B--10--8----7-------------|--8-----8------8-----------|
G--------0-----8----------|--8--8-----8---0-----5-----|
D---8-------0-----12--12--|-10------------0-----4-----|
G-----------------10------|--8------------------------|
C-------------------------|--9------------------2-----|

                            CII  2/3VIII
E-3--------------------|-5----------------------------|
B-3-----------3-----3/4|-4---3------------11----11----|
G-0--------0-----0-----|-0---2---------8--------------|
D-------0--------------|-----4-------8-------10----10-|
G----3-----------------|-2---------0------------------|
C-3--------------------|-----2---0--------------------|


E--10--8--6--5--|--3-----------------|
B---8-----------|--6--4--3-----4--3--|
G---------5-----|-----------5--0--5--|
D---------4-----|-----------------4--|
G---------------|--0-----2-----5-----|
C---9-----2-----|-----------------2--|


E---------------15--|
B-----------11------|
G--------0----------|
D-----0-------------|
G--0----------------|
C-------------------|

Tabbed by: Dave Quinn
questions/comments: quinndave88@yahoo.com
     
Добавлено: 05.07.2013
Другие материалы по этой песне:
  • Аккорды и текст

Страница создана 05.07.2013
http://primanota.ru/misc-soundtrack/schlindlers-list-chords.htm
Привет, Гость.
Предлагаем пройти революционный курс по гитаре.
Подарок от PrimaNota.Ru, забирай!