PrimaNota.ru - самый крупный в мире бесплатный архив песенных текстов, аккордов, табулатур и нот


Misc Soundtrack - Romeo And Juliet - таба, видео

Регистрация Запомнить меня
Войти через:  Facebook Google Twitter Vk Yandex Mail.ru

Misc Soundtrack - Romeo And Juliet - таба, видео

Печатать
Просмотров: 105
-----------------------------------------------------------------------
File created with Instab
-----------------------------------------------------------------------

Author/Artist: Nino Rota
Title: Romeo and Juliet theme
Album: Movie Theme
Transcribed by: Bob Hamilton
Email: bob@hamilton-bob.freeserve.co.uk

Intro
----------------|---------------|--------------------------------------
----------------|---------------|--------------------------------------
--9-7---7-9-7---|---7---77/55---|--------------------------------------
------9-------99|-9---9-------99|--------------------------------------
----------------|---------------|--------------------------------------
----------------|---------------|--------------------------------------

------------|----------|-------------|-------------------------|-------
------------|----------|-------------|-------------------------|-------
-9-12-11----|-------99v|9------------|-------------------------|-------
---------99v|9-12-9----|--12-10-1212v|12-10-9----9----------99v|-------
------------|----------|-------------|--------12---12-10-12----|-------
------------|----------|-------------|-------------------------|-------



------------|----------|-------------|-----------------------------|---
------------|----------|-------------|-----------------------------|---
-9-12-11----|-------99v|9-1414v-1111v|----12-11-9----12-11-9----99v|---
---------99v|9-12-9----|-------------|99v---------12---------12----|---
------------|----------|-------------|-----------------------------|---
------------|----------|-------------|-----------------------------|---



---------|--------|--------|--------|--------|--------|-------|-------|
----1212v|---1010v|12-1313v|10-1212v|---1010v|--------|-------|-------|
-12------|12------|--------|--------|12------|10-1212v|9-1111v|---99v-|
---------|--------|--------|--------|--------|--------|-------|12-----|
---------|--------|--------|--------|--------|--------|-------|-------|
---------|--------|--------|--------|--------|--------|-------|-------|



------------|----------|-------------|--------------------------|------
------------|----------|-------------|--------------------------|------
-9-12-11----|-------99v|9------------|--------------------------|------
---------99v|9-12-9----|--12-10-1212v|12-10-9----9----------99v-|------
------------|----------|-------------|--------12---12-10-12-----|------
------------|----------|-------------|--------------------------|------



------------|----------|-------------|-------------------------------|-
------------|----------|-------------|-------------------------------|-
-9-12-11----|-------99v|9-1414v-1111v|----12-11-9-------1212v-11-99v-|-
---------99v|9-12-9----|-------------|99v---------1212v--------------|-
------------|----------|-------------|-------------------------------|-
------------|----------|-------------|-------------------------------|-



----------|---------|---------|--------------------|-------------------
----------|---------|---------|--------------------|-------------------
-5-8-7----|------55v|5--------|--------------------|-------------------
-------55v|5-8-5----|--8-6-88v|8-6-5---5-------55v-|-------------------
----------|---------|---------|------8---8-6-8-----|-------------------
----------|---------|---------|--------------------|-------------------



----------|---------|-----------|-----------------------|--------------
----------|---------|-----------|-----------------------|--------------
-5-8-7----|------55v|5-1010v-77v|----8-7-5---8-7-5---55v|--------------
-------55v|5-8-5----|-----------|55v-------8-------8----|--------------
----------|---------|-----------|-----------------------|--------------
----------|---------|-----------|-----------------------|--------------


---------|--------|--------|--------|--------|--------|-------|-------|
----1212v|---1010v|12-1313v|10-1212v|---1010v|--------|-------|-------|
-12------|12------|--------|--------|12------|10-1212v|9-1111v|---99v-|
---------|--------|--------|--------|--------|--------|-------|12-----|
---------|--------|--------|--------|--------|--------|-------|-------|
---------|--------|--------|--------|--------|--------|-------|-------|



------------|-----------|--------------|--------------------------|---
------------|-----------|--------------|--------------------------|---
-9-12-11----|--------99v|-9------------|--------------------------|---
---------99v|-9-12-9----|---12-10-1212v|-12-10-9----9----------99v|---
------------|-----------|--------------|---------12---12-10-12----|---
------------|-----------|--------------|--------------------------|---
     
Добавлено: 07.12.2013
Другие материалы по этой песне:
  • Аккорды и текст

Страница создана 07.12.2013
http://primanota.ru/misc-soundtrack/romeo-and-juliet-chords.htm
Привет, Гость.
Предлагаем пройти революционный курс по гитаре.
Подарок от PrimaNota.Ru, забирай!