PrimaNota.ru - самый крупный в мире бесплатный архив песенных текстов, аккордов, табулатур и нот


Misc Soundtrack - Robin Hood Hamsterdance - таба

Регистрация Запомнить меня
Войти через:  Facebook Google Twitter Vk Yandex Mail.ru

Misc Soundtrack - Robin Hood Hamsterdance - таба

Печатать
Просмотров: 81
This is the famous song from Disneys movie "Robin Hood"
that is also used in the famous webpage "Hamsterdance"

I tabbed this song during a boring instrumental lession at school
so it's not that serious but i hope you'll appreciate it.

The song's written out as regular tab without measures or beats.
This means that bars indicate different parts of the tune instead of 
measures.

The song is supposed to go on forever and the last
part is only played once in the end of the song, so when you play it,
repeat from "Brake" to the beginning of the tab...


Enjoy!
SuperGoethe
www.musikdirekt.com/supergothe (swedish)
beffer3@hotmail.com

Part 1
  D                                          A7
e:----------------------------------------------|
B:-7--5--7-----------------7--5--7-----------5--|
G:----------7--7--4--4--------------7--6--7-----|
D:----------------------7-----------------------|
A:----------------------------------------------|
E:----------------------------------------------|


         D           G           A7          D
e:-------------------5--------------------------|
B:-7--5--7--------------8--------------5--7-----|
G:----------7--7--7--------7--4-----7--------7--|
D:-------------------------------7--------------|
A:----------------------------------------------|
E:----------------------------------------------|


Brake
  (no chord)
e:-7--5--7--7--5--7--5-----------|
B:----------------------7--5-----|
G:----------------------------5--|
D:-------------------------------|
A:-------------------------------|
E:-------------------------------|


Part 2
          D                             A7
e:--------------------------------------5--|
B:--7--5--7-----------------7--------7-----|
G:-----------7--7--4--4-----------7--------|
D:-----------------------7-----7-----------|
A:-----------------------------------------|
E:-----------------------------------------|


  D                  G              A7                   D
e:-7--5-----5--------------------------5--------------------|
B:-------7-----5-----5--------------7-----5--7--------------|
G:----------------7-----4--4--------------------7--4-----7--|
D:----------------------------7--4--------------------7-----|
A:----------------------------------------------------------|
E:----------------------------------------------------------|

(best read in standard ASCII-text (Courier or Courier New))

_________________________________________________________________
     
Добавлено: 21.09.2013
Другие материалы по этой песне:
  • Аккорды и текст

Страница создана 21.09.2013
http://primanota.ru/misc-soundtrack/robin-hood-hamsterdance-chords.htm
Привет, Гость.
Предлагаем пройти революционный курс по гитаре.
Подарок от PrimaNota.Ru, забирай!