PrimaNota.ru - самый крупный в мире бесплатный архив песенных текстов, аккордов, табулатур и нот


Misc Soundtrack - Poltergeist Theme - таба, видео

Регистрация Запомнить меня
Войти через:  Facebook Google Twitter Vk Yandex Mail.ru

Misc Soundtrack - Poltergeist Theme - таба, видео

Печатать
Просмотров: 124
I tried puting the melody of the Poltergeist Theme onto guitar and it sounds good,im too 
to put it sorry =(
to put the rythm and everything so just listen to the soundtrack and it'll work and so
it is:

|-----5p0----5-5-3-6-------3--------|-----5---5-5-3-6--------3-------|--------|
|---6----------------3-5-5---3-5----|---6--5----------3--5-5---3-5-6-|--------|
|-5------------------------------5--|-5------------------------------|--------|
|-----------------------------------|--------------------------------|--------|
|-----------------------------------|--------------------------------|--------|
|-----------------------------------|--------------------------------|--------|

( I kind of rushed into this part and it might not be very natural to play it like that, 
you got suggestion tell me )

|-5-8-10---5-8-10---8-5-8---5-6--|-3-5-6---3-5-6--3-5------|
|--------------------------------|-------------------------|
|--------------------------------|-------------------------|
|--------------------------------|-------------------------|
|--------------------------------|-------------------------|
|--------------------------------|-------------------------|

|-5-8-10---5-8-10---8-5-8---5-6--|-3-5-6---3-5-6--0-1------|
|--------------------------------|-------------------------|
|--------------------------------|-------------------------|
|--------------------------------|-------------------------|
|--------------------------------|-------------------------|
|--------------------------------|-------------------------|
Добавлено: 23.04.2012
Другие материалы по этой песне:
  • Аккорды и текст

Страница создана 23.04.2012
http://primanota.ru/misc-soundtrack/poltergeist-theme-chords.htm
Привет, Гость.
Предлагаем пройти революционный курс по гитаре.
Подарок от PrimaNota.Ru, забирай!