PrimaNota.ru - самый крупный в мире бесплатный архив песенных текстов, аккордов, табулатур и нот


Misc Soundtrack - One Missed Call - Japanese Melody Of Death - таба, видео

Регистрация Запомнить меня
Войти через:  Facebook Google Twitter Vk Yandex Mail.ru

Misc Soundtrack - One Missed Call - Japanese Melody Of Death - таба, видео

Печатать
Просмотров: 176
one missed call(japanese version)
melody of death
this is 100% correct



e|---------0------|-------------|---------0------|-------------|
B|------1-----1---|------0--3---|------1-----1---|------0--3---|
G|---2------------|---1---------|---2------------|---1---------|
D|----------------|-------------|----------------|-------------|
A|----------------|-------------|----------------|-------------|
E|----------------|-------------|----------------|-------------|


e|---0-----------|------------------|---0-----------|------------------|
B|------3--1--0--|--3--1--0---------|------3--1--0--|--3--1--0---------|
G|---------------|-----------2--0---|---------------|-----------2--0---|
D|---------------|------------------|---------------|------------------|
A|---------------|------------------|---------------|------------------|
E|---------------|------------------|---------------|------------------|



e|-----8 -4--|-----8--4--|--2-4-6-4-2-2-|--2-1-2-4-2-1-2---|
B|---5-------|--5--------|--------------|------------------|
G|-----------|-----------|--------------|------------------|
D|-----------|-----------|--------------|------------------|
A|-----------|-----------|--------------|------------------|
E|-----------|-----------|--------------|------------------|
Добавлено: 02.03.2012
Другие материалы по этой песне:
  • Аккорды и текст

Страница создана 02.03.2012
http://primanota.ru/misc-soundtrack/one-missed-call-japanese-melody-of-death-chords.htm
Привет, Гость.
Предлагаем пройти революционный курс по гитаре.
Подарок от PrimaNota.Ru, забирай!