PrimaNota.ru - самый крупный в мире бесплатный архив песенных текстов, аккордов, табулатур и нот


Misc Soundtrack - Once Upon A Time In Mexico - таба

Регистрация Запомнить меня
Войти через:  Facebook Google Twitter Vk Yandex Mail.ru

Misc Soundtrack - Once Upon A Time In Mexico - таба

Печатать
Просмотров: 175
Once Upon A Time in Mexico - Robert Rodriguez
 
Transcribed by Shawn Buffington
www.OmegaWorksPictures.com
 

e|----------------------------------------------|
B|----------------------------------------------|
G|----6---6-9-----6---6-9----6---6-9-7-6-7------|
D|--7---7---7---7---7---7--7---7---7------------|
A|----------------------------------------------|
E|----------------------------------------------|
 

e|---------------------------------------------------|
B|---------------------------------------------------|
G|----7---7-10----7---7-10--12--10--10--9-9-7-9------|
D|--7---7---7---7---7---7----------------------------|
A|----------0-----------0----------------------------|
E|---------------------------------------------------|
 
e|---------------------------------------------------|
B|----5---5-8----5---5-8-/10--8-8-6-6-5-6------------|
G|--5---5---5--5---5---5-----------------------------|
D|---------------------------------------------------|
A|---------------------------------------------------|
E|---------------------------------------------------|
 

e|---------------------------------------------------------------------|
B|-6-8--10-8-6-5-8-6-5---5-------------------------------5-6-5---------|
G|---------------------7---7-5-4-7-5-7-5------------------------7-5-4--|
D|---------------------------------------6-5-2-0-2---------------------|
A|---------------------------------------------------------------------|
E|---------------------------------------------------------------------|
 
 
 
Am--(bass notes:E F D E)---
 

    Am                    Dm        Am             Dm
                                                   H     H
e|--------------------------------------5-------------------|
B|--10-----10-10-10-8-6-5-6-----6\x-5-------8-6-5-5-6---5-6-|
G|----------------------------------------------------------|
D|----------------------------------------------------------|
A|----------------------------------------------------------|
E|----------------------------------------------------------|
 

  Am               E
                            P
e|-0----------------------------------|
B|----3-1-0-1-0-----------------------|
G|--------------2--1--/2-1------------|
D|-------------------------3-2--------|
A|-----------------------------3-2----|
E|------------------------------------|
 

   Am                     Dm             G               Em
 
e|---------------------------------------5-3-3---5-3----------------------------
----|
B|-5-5-5-3-5------5-5-3-5-6-3----6-6-5-6-------------6-5-6-5--------------------
----|
G|-----------2------------------------------------------------------------------
----|
D|------------------------------------------------------------------------------
----|
A|-----------------------------------------------------------------2-3-2-0-2----
----|
E|----------------------------------------------------------------------------3-
2-0-|
 

   Am                     Dm             G               Em
 
e|---------------------------------------5-3-3---5-3------------------------|
B|-5-5-5-3-5------5-5-3-5-6-3----6-6-5-6-------------6-5-6--------5--3--5---|
G|-----------2--------------------------------------------------------------|
D|--------------------------------------------------------------------------|
A|--------------------------------------------------------------------------|
E|--------------------------------------------------------------------------|
 
 
 
Em---- Am----
 
 
 

   G        C      Em
 
e|------7------12-13-12-----10--10-10-8--|
B|-8------6-5----------------------------|
G|---------------------------------------|
D|---------------------------------------|
A|---------------------------------------|
E|---------------------------------------|
 
 
 
e|-------------------------------------------------0-----|
B|-5-6-7--5-6-5---5--------------------------------1-----|
G|--------------7---7-5----------------------------2-----|
D|----------------------8-7-6-5--------------------2-----|
A|------------------------------7-6-5---5--6--7----------|
E|------------------------------------7------------------|
 
 

     
Добавлено: 22.08.2013
Другие материалы по этой песне:
  • Аккорды и текст

Страница создана 22.08.2013
http://primanota.ru/misc-soundtrack/once-upon-a-time-in-mexico-chords.htm
Привет, Гость.
Предлагаем пройти революционный курс по гитаре.
Подарок от PrimaNota.Ru, забирай!