PrimaNota.ru - самый крупный в мире бесплатный архив песенных текстов, аккордов, табулатур и нот


Misc Soundtrack - Lost - Jacobs Theme - таба

Регистрация Запомнить меня
Войти через:  Facebook Google Twitter Vk Yandex Mail.ru

Misc Soundtrack - Lost - Jacobs Theme - таба

Печатать
Просмотров: 140
E -3-1----------------------------3-1------------3---1--------|
B -----1--4-3--4-3-1---0-1---------1--4-3-------------3-------|
G ------------------------------------------------------------|
D ------------------------------------------------------------|
A ------------------------------------------------------------|
E ------------------------------------------------------------|

E -15--13--11--10--8--10--11-- 10-11-----8----------------------|
B --------------------------------------------------------------|
G --------------------------------------------------------------|
D --------------------------------------------------------------|
A --------------------------------------------------------------|
E --------------------------------------------------------------|

E -15--13--11--10--8--10--11--10-10---------------------------|
B ------------------------------------------------0--1--3-4---|
G ------------------------------------------------------------|
D ------------------------------------------------------------|
A ------------------------------------------------------------|
E ------------------------------------------------------------|

E -15--13--11--10--8--10--11-- 10-11-----8----------------------|
B --------------------------------------------------------------|
G --------------------------------------------------------------|
D --------------------------------------------------------------|
A --------------------------------------------------------------|
E --------------------------------------------------------------|

E -15--13--11--10--8--10--11--10-10---15---------------------|
B -----------------------------------------------------------|
G -----------------------------------------------------------|
D -----------------------------------------------------------|
A -----------------------------------------------------------|
E -----------------------------------------------------------|

E -0--0--1--1--5--1--0--0--5--5--5--10--10—7-----------------|
B -----------------------------------------------------------|
G -----------------------------------------------------------|
D -----------------------------------------------------------|
A -----------------------------------------------------------|
E -----------------------------------------------------------|

E -3----3--5--8--13---8--7--3------------------------------|
B ---------------------------------------------------------|
G ---------------------------------------------------------|
D ---------------------------------------------------------|
A ---------------------------------------------------------|
E ---------------------------------------------------------|

E -15--13--11--10--8--10--11-- 10-11-----8--------------------|
B ------------------------------------------------------------|
G ------------------------------------------------------------|
D ------------------------------------------------------------|
A ------------------------------------------------------------|
E ------------------------------------------------------------|

E -15--13--11--10--8--10--11--10-10--------------------------|
B ------------------------------------------------0--1--3-4--|
G -----------------------------------------------------------|
D -----------------------------------------------------------|
A -----------------------------------------------------------|
E -----------------------------------------------------------|

E -15--13--11--10--8--10--11-- 10-11-----8--------------------|
B ------------------------------------------------------------|
G ------------------------------------------------------------|
D ------------------------------------------------------------|
A ------------------------------------------------------------|
E ------------------------------------------------------------|

E -15--13--11--10--8--10--11--10-10---7-----8----------------|
B -----------------------------------------------------------|
G -----------------------------------------------------------|
D -----------------------------------------------------------|
A -----------------------------------------------------------|
E -----------------------------------------------------------|
Добавлено: 27.02.2012
Другие материалы по этой песне:

Страница создана 27.02.2012
http://primanota.ru/misc-soundtrack/lost-jacobs-theme-chords.htm
Привет, Гость.
Предлагаем пройти революционный курс по гитаре.
Подарок от PrimaNota.Ru, забирай!