PrimaNota.ru - самый крупный в мире бесплатный архив песенных текстов, аккордов, табулатур и нот


Misc Soundtrack - Jim Jones At Botany Bay-The Hateful Eight - таба

Регистрация Запомнить меня
Войти через:  Facebook Google Twitter Vk Yandex Mail.ru

Misc Soundtrack - Jim Jones At Botany Bay-The Hateful Eight - таба

Печатать
Просмотров: 221
-------------------------------------------------------------------------------
                             Jim Jones at Botany Bay - Jennifer Jason Leigh
-------------------------------------------------------------------------------
Tabbed by:Barela
E-mail:mariache6@hotmail.com

Tuning:1/2 step down 


From The Hateful Eight Soundtrack:

This Tab is for one whole verse.  All the others verses are similar.  
This is pretty much accurate. There may be a few different notes as I tabbed this 
from the soundtrack  and it was hard to hear each individual notes over the vocals.
All the verses have slightly different notes, but this will get you through the 
whole song.  Good luck and please leave comment and rate this tab!  Thanks


    Em                          Em
e|---------------------------------------------------------------------------|
B|----0-------------0-------------0------------0-----------------------------|
G|----------0-------------0-------------0------------0-----------------------|
D|---------------------------------------------------------------------------|
A|------0h2-----------0h2-----------0h2----------0h2-------------------------|
E|--0-------------0-------------0------------0-------------------------------|
    G                           Am    Em
e|---------------------------------------------------------------------------|
B|----0------0------0-----0-------1-----0------0-----------------------------|
G|----0------0------0-----0-------2-----0------------0-----------------------|
D|------------------------------------2--------------------------------------|
A|----------------------2-------0----------------0h2-------------------------|
E|--3------3------3--------------------------0-------------------------------|
    C            G              Am    Em
e|---------------------------------------------------------------------------|
B|----1-----1------0-----0--------1-----0------0-----------------------------|
G|----0-----0------0-----0--------2-----0------------0-----------------------|
D|--------2---------------------------2--------------------------------------|
A|--3------------------2--------0----------------0h2-------------------------|
E|---------------3---------------------------0-------------------------------|
    C            G              Am    Em
e|---------------------------------------------------------------------------|
B|----1-----1------0-----0--------1-----0------0------------0----------------|
G|----0-----0------0-----0--------2-----0------------0------------0----------|
D|--------2---------------------------2--------------------------------------|
A|--3------------------2--------0----------------0h2----------0h2------------|
E|---------------3---------------------------0------------0------------------|
    Am    Em              Am    Em     Em
e|---------------------------------------------------------------------------|
B|----1-----0-----0---0-----1-----0------0------------0------------0---------|
G|----2-----0-----0---0-----2-----0------------0------------0------------0---|
D|--------2---------------------2--------------------------------------------|
A|--0---------------------0----------------0h2----------0h2----------0h2-----|
E|--------------0----0-----------------0------------0------------0---------0-|


| /   slide up
| \   slide down
| h   hammer-on
| p   pull-off
| ~   vibrato
| +   harmonic
| x   Mute note
| b   Bend
| pb  Pre-bend
| br  Bend release
| pbr Pre-bend release
| brb Bend release bend

************************************
Добавлено: 14.05.2016
Другие материалы по этой песне:
  • Аккорды и текст

Страница создана 14.05.2016
http://primanota.ru/misc-soundtrack/jim-jones-at-botany-bay-the-hateful-eight-chords.htm
Привет, Гость.
Предлагаем пройти революционный курс по гитаре.
Подарок от PrimaNota.Ru, забирай!