PrimaNota.ru - самый крупный в мире бесплатный архив песенных текстов, аккордов, табулатур и нот


Misc Soundtrack - James Bond Themes - таба, видео

Регистрация Запомнить меня
Войти через:  Facebook Google Twitter Vk Yandex Mail.ru

Misc Soundtrack - James Bond Themes - таба, видео

Печатать
Просмотров: 202
 Album: The Best Of Bond: James Bond 
 Tabbed By: Lee Thomas Robson  The_Axis@gmx.co.uk> 21/11/2002

 James Bond Theme:     Riff:
 e|-Intro-x2------| e|----------------|----------------| 
 b|---------------| b|----------------|----------------|
 g|-4---5---6---5-| g|----------------|----------------|
 d|---------------| d|----------------|----------------|
 a|-2---3---4---3-| a|----------------|----------------|
 e|---0---0---0---| e|-0-222-2--0-0-0-|-0-333-3--2-2-2-|
 
 e|----------------|------------------------------------|
 b|----------------|------------------------------------|
 g|----------------|------------------------------------|
 d|----------------|----------------1-0-----------------|
 a|----------------|-----------------------2-0-2--------|
 e|-0-222-2--0-0-0-|-0-333-3--2-1-0---------------------|

 e|----------------------------------------|
 b|----------------------------------------|
 g|-9-9---9--11-9-11----12-12---12-11-9-11-|
 d|-x-x---x--x--x--x-----x--x----x-x--x-x--|
 a|-7-7---7--9--7--9----10-10---10-9--7-9--| 
 e|----------------------------------------|
   Solo:                                1st     2nd 
 e|------------------------------------|-------|-------|
 b|------------------------------------|-------|-------|
 g|-------8-7--------3--4--------------|-------|-------|
 d|---5-----------5----------5h7p5\4---|---2---|-------|
 a|-7----------------------------------|-2---4-|---6-7-|
 e|------------------------------------|-------|-7-----|
                                        1st     2nd  
 e|-------11-10------6--7--------------|-------|-------|
 b|---8-----------8----------8h10p8\7--|-0-5---|-------|
 g|-9----------------------------------|-----6-|---8-9-|
 d|------------------------------------|-------|-9-----|
 a|------------------------------------|-------|-------|
 e|------------------------------------|-------|-------|
                                     
 e|-0-0-------0-0------0-0--0-0-0--| 
 b|-0-0-------0-0------0-0--0-0-0--| 
 g|------4---------4---------------| 
 d|------x---------x---------------| 
 a|------2---------2---------------| 
 e|--------------------------------| 
   Ending:
 e|-----------------------------------------------|
 b|---------------------------------------7-------|
 g|--------------------------------8-7----8-------|
 d|----1-0------4-2------8-7----5---------9-------|
 a|-----------2--------5------7-----------10------|
 e|-0-3-----3--------7--------------------0-------|

 Goldeneye Intro:
 e|-----------| e|-----------------| e|-8--7-------|
 b|-----------| b|--fast-picking---| b|-x--x-------|
 g|-----------| g|-2---1---2---4---| g|-5--4-------|
 d|-2---4-4-4-| d|-4---4---4---4---| d|------------|
 a|-x---x-x-x-| a|-----------------| a|------------|
 e|-0---2-2-2-| e|-----------------| e|------------|


 Goldfinger Intro:      
 e|-0-------0----------|-0-4/5------|------------|
 b|-0-------1----------|---------5\-|------------|
 g|-1-------0----------|------------|---0h1------|
 d|-2-------2----------|------------|-2-------2\-|
 a|-2-------3----------|------------|------------|
 e|-0------------------|------------|------------|
                           
 Licence To Kill Intro:
 e|-F#------D----------|-----------|-----------|
 b|--------------------|---------0-|-2-0-------|
 g|-3------------------|-----1-2---|-----2-1---|
 d|-4-------4----------|-2-4-------|---------4-|
 a|-4-------5----------|-----------|-----------|
 e|---------5----------|-----------|-----------|
  
 You Only Live Twice Intro:
             e|--------------------------12----10-|
   Bass      b|-guitar-------5---3----------11----|
 g|---9---7- g|----------------3-----/11----------|
 d|-----8--- d|---2---0---/4----------------------|
 a|-9------- a|-----1-----------------------------|
 e|--------- e|-2---------------------------------|

 e|-/19-18h19-18-16h18-16---14-|-17-16h17-16-14h16-14---12-|
 b|----------------------------|---------------------------|
 g|----------------------------|---------------------------|
 d|----------------------------|---------------------------|
 a|----------------------------|---------------------------|
 e|----------------------------|---------------------------|
                                         1st| extension during verse
 e|-7-6h7-6-4h6-4--2-|-5-4h5-4-2h4-2-0--|-2-|-3-2h3-2-0h2-0---------0
 b|------------------|------------------|---|----------------3--2-3--
 g|------------------|------------------|---|------------------------
 d|------------------|------------------|---|------------------------
 a|------------------|------------------|---|------------------------
 e|------------------|------------------|---|------------------------

 On Her Majestys Secret Service Intro:
                   e|-Guitar-1-backing----------x2|
   Bass            b|-----------------------------|
 g|-------------x2 g|-palm-mute-all-of-this-------|
 d|-3---1--------- d|-3-3333-1-1111---------------|
 a|---------4---3- a|---------------4-4444-3-3333-|
 e|--------------- e|-----------------------------|
 
 e|-Guitar-2-(tune)--------x2| |-Guitar-1-backing------------|
 b|--------------------------| |-----------------------------|
 g|--------------------------| |-palm-mute-again-------------|
 d|--------------------------| |--------0-0000---------------|
 a|------------------------0-| |-1-1111--------4-4444-2-2222-|
 e|-1---1-4----3-4-3-1---1---| |-----------------------------|

 e|-Guitar-2-melody----------|---------------|---------------|
 b|--------------------------|---------------|---------------|
 g|--------------------------|---------------|---------------|
 d|--------------------------|---------------|-------1-------|
 a|-1---1-4----3-4-3-----3-1-|-1-1-3-1-4-1-3-|-1-3-1-------1-|
 e|------------------4-------|---------------|---------2-4---|

 View To A Kill Intro:
 e|-8-----8--8--10-----10-10--11-----11-11--13--13-|-11-13-11-13-|
 b|-8-----8--8--12-----12-12--11-----11-11--13--13-|-11-13-11-13-|
 g|-8-----8--8--12-----12-12--12-----12-12--14--14-|-12-14-12-14-|
 d|------------------------------------------------|-------------|
 a|-Cm----------G-------------Eb------------F------|-------------|
 e|------------------------------------------------|-------------|
 
 View To A Kill Chords:
 Verse  Cm, G/b, Bb, F
 Bridge Ab, Ebm, B, C#
 Chorus E, G#m7, C#m7, D#m7

     
Добавлено: 06.11.2013
Другие материалы по этой песне:
  • Аккорды и текст

Страница создана 20.09.2013
http://primanota.ru/misc-soundtrack/james-bond-themes-chords.htm
Привет, Гость.
Предлагаем пройти революционный курс по гитаре.
Подарок от PrimaNota.Ru, забирай!