PrimaNota.ru - самый крупный в мире бесплатный архив песенных текстов, аккордов, табулатур и нот


Misc Soundtrack - Gangster - Ya Ali - таба, видео

Регистрация Запомнить меня
Войти через:  Facebook Google Twitter Vk Yandex Mail.ru

Misc Soundtrack - Gangster - Ya Ali - таба, видео

Печатать
Просмотров: 115
Ya ali
From the hindi movie Gangster
By Sanjeev George and Thomas George

SanjeevGeorge123@yahoo.co.in


Tuning: standard

Intro G  Am  D  Em x 2


Chorus
Em
Ya Ali
   Am
Rehem Ali
 D
Ya Ali
     Eadd9
Yaar pay qurban hai sabhi

 Em         Am
Ya Ali madad Ali
    D            Eadd9     D
Ya Ali yeh meri jaan yeh zindagi


Verse 1
      D
Ishq pay haan
   Em         C         Eadd9
Mita du Luta du mai apni khudi
   D
Yaar pay haan
   Em       C        Eadd9
Luta du mita du mai yeh hasti

Chorus

Then   Em  Am  D
     
       Em  C  Eadd9 …keep playing about 8 times

Stanza 1
 Em                   Am              D           Eadd9
Mujhay kuch pal dai qurbat kay faqeer hum teri chahat kay

Em               Am              D           Eadd9
Rahey baychain dil kub tak milay kuch pal tou rahat kay

  D                  Em               C           Eadd9
Chahat pay ishq pay haan mita du luta du mai apni khudi

  D             Em        C           Eadd9
Yaar pay haan luta du mita du mai yeh hasti

Chorus

Solo chords are Em  C  Em  C….

Solo

e|---------------------------------------------------------------------------|
B|--5-4-5-4-5-4-5-4-5-4------5-4-5-4-5-4-5-4------5-4-7-4-5-4-5-4------------|
G|-----------------------5-4------------------5-4------------------5-4-------|
D|---------------------------------------------------------------------------|
A|---------------------------------------------------------------------------|
E|---------------------------------------------------------------------------|

e|------------------------|
B|--7-10-8v---5-8-7v------|
G|------------------------|
D|------------------------|
A|------------------------|
E|------------------------|

e|---------------------------------------------------------------------------|
B|--5-4-5-4-5-4-5-4-5-4------5-4-5-4-5-4-5-4------5-4-7-4-5-4-5-4------------|
G|-----------------------5-4------------------5-4------------------5-4-------|
D|---------------------------------------------------------------------------|
A|---------------------------------------------------------------------------|
E|---------------------------------------------------------------------------|

e|---------------------------------------------------------------------------|
B|---------7--------------------------------------7--------------------------|
G|-------8---9-8-7----------------------9-----9-8---8---------9---9----------|
D|--9-10-----------10-9-7-------------9-----9---------9-7---9-----9----------|
A|------------------------10-9-10-7-7---------------------7-------7----------|
E|---------------------------------------------------------------------------|

e|---------7------------------------------------8-7-----------------------------|
B|-----------10-7-8------------7--------------------10-8-7----------------------|
G|----9-8------------999---9-8---8----------9--------------9-8-7----------------|
D|--9----------------999--9--------9------9----------------------9-7------------|
A|-------------------777-------------10-7----------------------------10-9-7v----|
E|------------------------------------------------------------------------------|


Stanza 2 same chords as stanza 1
Bina teray na ek pal ho na bin teray kabhi kal ho
Yeh dil ban jai pathar ka na is mai koi hal chal ho
Sanam pay haan ishq pay haan mita du luta du mai apni khudi
Qasam say haan luta du mita du mai yeh hasti

Chorus again

Outro  Em  Am  D
     
       Em  C  Eadd9 …keep playing

Добавлено: 25.04.2012
Другие материалы по этой песне:
  • Аккорды и текст

Страница создана 25.04.2012
http://primanota.ru/misc-soundtrack/gangster-ya-ali-chords.htm
Привет, Гость.
Предлагаем пройти революционный курс по гитаре.
Подарок от PrimaNota.Ru, забирай!