PrimaNota.ru - самый крупный в мире бесплатный архив песенных текстов, аккордов, табулатур и нот


Misc Soundtrack - Fantaghiro theme - таба, видео

Регистрация Запомнить меня
Войти через:  Facebook Google Twitter Vk Yandex Mail.ru

Misc Soundtrack - Fantaghiro theme - таба, видео

Печатать
Просмотров: 123



Date: Thu, 13 May 1999 04:33:33 PDT
From: William Alexis 
Subject: m/misc_soundtrack/fantaghiro_theme.tab

Fantaghiro series (Cave Of The Golden Rose) theme song guitar tab.

Intro:
E-----------------------------
A-----------------------------
D-3--------------3------------
G----3-0-----3------3-0-----3-
B--------3-1------------3-1---
E----------------------------- played through out the song..

Verse 1:
E--------------------------------------------------------------------------
A--------------------------------------------------------------------------
D-----------------------------------------------------1-1------------------
G--------------1-----1-----------------------------------------------------
B-0-5-7-3-2-0----0-1--------------3-2--2-5-0--0-2-1-0-----0-1-2-5--5-4-0-5-
E----------------------5-0-2--2-0------------------------------------------

E--------------------------------------------------------------------------
A--------------------------------------------------------------------------
D---------------1----------------------------------------------------------
G-----1--------------------------------------------------------------------
B-0-2---0-2-1-0------------------------------------------------------------
E--------------------------------------------------------------------------

Verse 2:
E--------------------------------------------------------------------------
A--------------------------------------------------------------------------
D-----------------------------------------------------1-1------------------
G--------------1-----1-----------------------------------------------------
B-0-5-7-3-2-0----0-1--------------3-2--2-5-0--0-2-1-0-----0-1-2-5--5-4-0-5-
E----------------------5-0-2--2-0------------------------------------------

E--------------------------------------------------------------------------
A--------------------------------------------------------------------------
D--------------------------------------------------------------------------
G---1---------1------------------------------------------------------------
B-2---0-2-1-0---1-1-2-4-6-8-8-9-6-4-6-6-6-8-5-6-2-2-4-6-8-8-9-6-4-6-6-6-8-5
E--------------------------------------------------------------------------

E--------------------------------------------------------------------------
A--------------------------------------------------------------------------
D--------------------------------------------------------------------------
G-------------------------1------------------------------------------------
B-6-2-2-4-6-8-8-9-6-4-6-4--------------------------------------------------
E--------------------------------------------------------------------------

Ending:
E--------------------------------------------------------------------------
A--------------------------------------------------------------------------
D----------------------------------------------------1---------------------
G--------------1-----1-----------------------------------------------------
B-0-5-7-3-2-0----0-1-------------3-2--2-5-0--0-2-1-0-----------------------
E----------------------5-0-2-2-0-------------------------------------------


This song was tabbed by Will Alexis. Any comments or corrections can be sent
to: gen_terrorist@hotmail.com


Добавлено: 15.10.2013
Другие материалы по этой песне:
  • Аккорды и текст

Страница создана 15.10.2013
http://primanota.ru/misc-soundtrack/fantaghiro-theme-chords.htm
Привет, Гость.
Предлагаем пройти революционный курс по гитаре.
Подарок от PrimaNota.Ru, забирай!