PrimaNota.ru - самый крупный в мире бесплатный архив песенных текстов, аккордов, табулатур и нот


Misc Soundtrack - Escape From La - Snakes Uniform - таба, видео

Регистрация Запомнить меня
Войти через:  Facebook Google Twitter Vk Yandex Mail.ru

Misc Soundtrack - Escape From La - Snakes Uniform - таба, видео

Печатать
Просмотров: 116
----------------------------------------------------------------------------------------------------
                     John Carpenter & Shirley Walker  - Snake's Uniform
                                Escape From L.A Soundtrack
----------------------------------------------------------------------------------------------------

Album : Escape From L.A Soundtrack
Tempo : 100
E-mail: gwendal.mollo@orange.fr
Tabbed by: newg

See my guitar pro/powertab on the site for more.

Guitar I :
              v                                                   
E |-----------x----|----------------------------|----------------|
B |-----------x----|----------------------------|----------------|
G |-----------x----|----------------------------|----------------|
D |-----------x----|----------------------------|----------------|
A |-----------x----|----------------------------|----------------|
E |----------------|--0--0--3--0--3--0--3--0L---|--0-------------|

                                                                                
----------------------------|----------------|----------------------------|----|
----------------------------|----------------|----------------------------|----|
----------------------------|----------------|----------------------------|----|
----------------------------|----------------|----------------------------|----|
----------------------------|----------------|----------------------------|----|
--0--0--3--0--3--0--3--0L---|--0-------------|--0--0--3--0----------------|----|

  ^  ^                                                               
----------|----------------------------|----------------------------|
----------|----------------------------|----------------------------|
----------|----------------------------|----------------------------|
----------|----------------------------|----------------------------|
--2--0----|----------------------------|----------------------------|
--3--2----|--0--0--3--0----------------|--0--0--3--0--3--0--3--0L---|

                                                               
----------------|----------------------------|----------------|
----------------|----------------------------|----------------|
----------------|----------------------------|----------------|
----------------|----------------------------|----------------|
----------------|----------------------------|----------------|
--0-------------|--0--0--3--0--3--0--3--0L---|--0-------------|

                                    ^  ^                                  
----------------------------|----|----------|----------------------------|
----------------------------|----|----------|----------------------------|
-----------2----------------|----|----------|----------------------------|
----------------------------|----|--2--0----|----------------------------|
--0--0--3-------------------|----|--3--2----|----------------------------|
----------------------------|----|----------|--0--0--3--0--3--0--3--0L---|

                                                               
----------------|----------------------------|----------------|
----------------|----------------------------|----------------|
----------------|----------------------------|----------------|
----------------|----------------------------|----------------|
----------------|----------------------------|----------------|
--0-------------|--0--0--3--0--3--0--3--0L---|--0-------------|

                                    ^  ^
----------------------------|----|----------|----------------------------|
----------------------------|----|----------|----------------------------|
----------------------------|----|----------|----------------------------|
----------------------------|----|----------|----------------------------|
----------------------------|----|--2--0----|----------------------------|
--0--0--3--0----------------|----|--3--2----|--0--0--3--0----------------|


-------|-------|-------||
-------|-------|-------||
-------|-------|-------||
-------|-------|-------||
-------|-------|-------||
-------|-------|-------||



Guitar II :

E |-------|-------|-------|-------|-------|
B |-------|-------|-------|-------|-------|
G |-------|-------|-------|-------|-------|
D |-------|-------|-------|-------|-------|
A |-------|-------|-------|-------|-------|
E |-------|-------|-------|-------|-------|


----------------------------------------------------|-------|
--------------0-----------0-------------------------|-------|
-----------------------2----------------------------|-------|
--------------------------------------2L------------|--2----|
----------------------------------------------------|-------|
----------------------------------------------------|-------|


----------------------------|----------------|-------|-------|-------|-------|
--0-----0-------------------|----------------|-------|-------|-------|-------|
--0-----0-----2--------2----|--0-------------|-------|-------|-------|-------|
-----0-----0-----0--4-------|-----------2L---|--2----|-------|-------|-------|
----------------------------|----------------|-------|-------|-------|-------|
----------------------------|----------------|-------|-------|-------|-------|


--------------0-----------0-------------------------|-------|
-----------------------3----------------------------|-------|
--------------------------------------2L------------|--2----|
----------------------------------------------------|-------|
----------------------------------------------------|-------|
----------------------------------------------------|-------|


--0-----0-------------------|----------------------|-------|-------|-------|
--1-----1-----3-----0--3----|----------------------|-------|-------|-------|
-----0-----0-----0----------|--2s-4~---------------|-------|-------|-------|
----------------------------|------------------2L--|--2----|-------|-------|
----------------------------|----------------------|-------|-------|-------|
----------------------------|----------------------|-------|-------|-------|


----------------------------------------------------|-------|
--------------0-----------0-------------------------|-------|
-----------------------2----------------------------|-------|
--------------------------------------2L------------|--2----|
----------------------------------------------------|-------|
----------------------------------------------------|-------|


----------------------------|-------|-------|-------|-------||
--0-----0-------------------|-------|-------|-------|-------||
--0-----0-----2--------2----|--0----|-------|-------|-------||
-----0-----0-----0--4-------|-------|--2~---|-------|-------||
----------------------------|-------|-------|-------|-------||
----------------------------|-------|-------|-------|-------||

*****************************************************************************************************

Guitar III :

             v                                          
E |-----------0L---|--0L-0L-0L-0L-0L-0L-0L-0L---|--0----|
B |-----------0L---|--0L-0L-0L-0L-0L-0L-0L-0L---|--0----|
G |-----------0L---|--0L-0L-0L-0L-0L-0L-0L-0L---|--0----|
D |-----------2----|--2--2-----2-----2-----2L---|--2----|
A |-----------2----|--2--2--2--2--2--2--2--2L---|--2----|
E |----------------|--0--0--3--0--3--0--3--0L---|--0----|

                                                                       
----------------------------|-------|----------------------------|----|
----------------------------|-------|----------------------------|----|
----------------------------|-------|----------------------------|----|
--2--2-----2-----2-----2L---|--2----|--2--2-----2----------------|----|
--2--2--2--2--2--2--2--2L---|--2----|--2--2--2--2----------------|----|
--0--0--3--0--3--0--3--0L---|--0----|--0--0--3--0----------------|----|

  ^  ^                                                                       
----------|----------------------------|----------------------------|-------|
----------|----------------------------|----------------------------|-------|
----------|----------------------------|----------------------------|-------|
--0--0----|--2--2-----2----------------|--2--2-----2-----2-----2L---|--2----|
--2--0----|--2--2--2--2----------------|--2--2--2--2--2--2--2--2L---|--2----|
--3--2----|--0--0--3--0----------------|--0--0--3--0--3--0--3--0L---|--0----|

                                                       ^  ^     
----------------------------|-------|-------|-------|----------|
----------------------------|-------|-------|-------|----------|
----------------------------|-------|-------|-------|--0--0----|
--2--2-----2-----2-----2L---|--2----|-------|-------|--2--0----|
--2--2--2--2--2--2--2--2L---|--2----|-------|-------|--3--2----|
--0--0--3--0--3--0--3--0L---|--0----|-------|-------|----------|

                                                                          
----------------------------|-------|----------------------------|-------|
----------------------------|-------|----------------------------|-------|
----------------------------|-------|----------------------------|-------|
--2--2-----2-----2-----2L---|--2----|--2--2-----2-----2-----2L---|--2----|
--2--2--2--2--2--2--2--2L---|--2----|--2--2--2--2--2--2--2--2L---|--2----|
--0--0--3--0--3--0--3--0L---|--0----|--0--0--3--0--3--0--3--0L---|--0----|

                                    ^  ^
----------------------------|----|----------|----------------------------|
----------------------------|----|----------|----------------------------|
----------------------------|----|----------|----------------------------|
--2--2-----2----------------|----|--0--0----|--2--2-----2----------------|
--2--2--2--2----------------|----|--2--0----|--2--2--2--2----------------|
--0--0--3--0----------------|----|--3--2----|--0--0--3--0----------------|


-------|-------|-------||
-------|-------|-------||
-------|-------|-------||
-------|-------|-------||
-------|-------|-------||
-------|-------|-------||
Добавлено: 26.08.2015
Другие материалы по этой песне:

Страница создана 11.03.2014
http://primanota.ru/misc-soundtrack/escape-from-la-snakes-uniform-chords.htm
Привет, Гость.
Предлагаем пройти революционный курс по гитаре.
Подарок от PrimaNota.Ru, забирай!