PrimaNota.ru - самый крупный в мире бесплатный архив песенных текстов, аккордов, табулатур и нот


Misc Soundtrack - Edward Scissorhands Theme - таба

Регистрация Запомнить меня
Войти через:  Facebook Google Twitter Vk Yandex Mail.ru

Misc Soundtrack - Edward Scissorhands Theme - таба

Печатать
Просмотров: 190
Ok guys, so I did my best to tab out the begining all by ear, I think it sounds very 
the same so lemme know what you think.

Once I have time, I'll tab out the rest of it, so yeah, enjoy!

And I'll probably be doing This is Halloween or Corpse Bride next :]]

Oh and the : <---Colon, it means Repeat so after the begining repeat it all again. and 
starts at 00:34 so yeah. and at the ending part it moves a bit quickly but the rest of 
song is very slow.

E----3--1-----1--3--8--7--3--1-----1--3--8--7--10--8--7--8--10--13-----|
B----------4---------------------4-------------------------------------|
G----------------------------------------------------------------------|
D----------------------------------------------------------------------|
A----------------------------------------------------------------------|
e----------------------------------------------------------------------|


E--4--4--1--10--8--7--5--3-:-------------------------------------------|
B--------------------------:--4--8--3--1--9--8--6--3--4--6--9----------|
G--------------------------:-------------------------------------------|
D--------------------------:-------------------------------------------|
A--------------------------:-------------------------------------------|
e--------------------------:-------------------------------------------|

E--6--4--3--0—3--4--9----|
B------------------------|
G------------------------|
D------------------------|
A------------------------|
e------------------------|
Добавлено: 24.05.2012
Другие материалы по этой песне:
  • Аккорды и текст

Страница создана 24.05.2012
http://primanota.ru/misc-soundtrack/edward-scissorhands-theme-chords.htm
Привет, Гость.
Предлагаем пройти революционный курс по гитаре.
Подарок от PrimaNota.Ru, забирай!