PrimaNota.ru - самый крупный в мире бесплатный архив песенных текстов, аккордов, табулатур и нот


Misc Soundtrack - Dragon Age Theme - бас-таба, видео

Регистрация Запомнить меня
Войти через:  Facebook Google Twitter Vk Yandex Mail.ru

Misc Soundtrack - Dragon Age Theme - бас-таба, видео

Печатать
Просмотров: 346
-------------------------------------------------------------------------------
                             Dragon Age Main Theme - Dragon Age OST, Inon Zur
-------------------------------------------------------------------------------
Tabbed by: 790FX
Tuning: Standard

Very beautiful Soundtrack. I tabbed it by this video: https://www.youtube.com/watch?v=Hwtk2GVfgK8
I mixed the notes of the brass and the strings in this tab. I think it's correct and it sounds awesome.
There's a lot of timing - so play it with the song a few times. Then it's a easy song. Have fun!


G:---------|-------2-|-4---9-11-|-12---11-9-|
D:---------|-2---5---|----------|-----------|
A:-R-----2-|---------|----------|-----------|
E:---------|---------|----------|-----------|

G:-4*-------|-4*-------|-7---6-4-|-2*-------|
D:----------|----------|---------|----------|
A:----------|----------|---------|----------|
E:----------|----------|---------|----------|

                        e
G:-5---4-2-|-4*-------|-7-6---4-|-2---4---|
D:---------|----------|---------|---------|
A:---------|----------|---------|---------|
E:---------|----------|---------|---------|

G:-6*-------|-6---4-2-|-----5---|-----7-4-|
D:----------|---------|-5-------|-7-------|
A:----------|---------|---------|---------|
E:----------|---------|---------|---------|

                              e e
G:-------2-|-4---9-11-|-12---11-9-|-7---11---|
D:-2---5---|----------|-----------|----------|
A:---------|----------|-----------|----------|
E:---------|----------|-----------|----------|

               e  e                    e  e
G:-11---9---|-11-12-11---|-----11---|-11-12-11---||
D:----------|------------|-R--------|------------||
A:----------|------------|----------|------------||
E:----------|------------|----------|------------||


@0:59
             e e     e e
G:-9---R---|-------------|-3-------|-9---R---|
D:---------|-4-5-4---4-R-|-----7---|---------|
A:-7---R---|-------------|-3---5---|-7---R---|
E:---------|-------------|---------|---------|

   e e     e e                    e e                  
G:-------------|---------|-9---9/16-R-|-15---R-11-|
D:-4-5-4---4-R-|-8---7---|---R--------|-----------|
A:-------------|-6---5---|-7----------|-----------|
E:-------------|---------|------------|-----------|

       e  e
G:-11-12-11-9---|-9*-------|---------||
D:--------------|----------|---------||
A:--------------|----------|-R-------||
E:--------------|----------|---------||


@1:22
                                 e  e           e  e
G:-----5-7-|-9---14-16-|-17---R-16-14-|--------14-16-|
D:-7-------|-----------|--------------|-14---R-------|
A:---------|-----------|--------------|--------------|
E:---------|-----------|--------------|--------------|


G:-17---16-17-|-21---19-17-|-16*-----14-||
D:------------|------------|------------||
A:------------|------------|------------||
E:------------|------------|------------||


@1:37
             e e     e e                                
G:-9---9---|-------------|---------|-9---R---|
D:---------|-4-5-4---4-R-|-8---7---|---------|
A:-7---7---|-------------|---------|-7---R---|
E:---------|-------------|-6---5---|---------|

   e e    e e                        e e     e e
G:-------------|---------|-9---R---|-------------|
D:-4-5-4--4-R--|-8---7---|---------|-4-5-4---4-R-|
A:-------------|---------|-7-------|-------------|
E:-------------|-6---5---|---------|-------------|

G:-15-------|------------||
D:----------|------------||
A:-13-------|----------7-||
E:-------0*-|-(0)*-------||


@ 1.57
                                  e  e         e  e
G:------5-7-|-9~---14-16-|-17~---16-14-|-9~---14-16-|
D:-7b-------|------------|-------------|------------|
A:----------|------------|-------------|------------|
E:----------|------------|-------------|------------|

                                e  e                 e e
G:-17~---16-17-|-21~---19-17-|-16-14-12----|-12-11---9-7-|
D:-------------|-------------|-------------|-------------|
A:-------------|-------------|-------------|-------------|
E:-------------|-------------|-------------|-------------|

                                e  e
G:-5---5-7-|-9~---14-16-|-17---16-17-|-19*-------|
D:---7-----|------------|------------|-----------|
A:---------|------------|------------|-----------|
E:---------|------------|------------|-----------|

                                    
G:-20-------14-|-15---14-12-|-9---9-9-|-9---9-9-|
D:----17~------|------------|-9---9-9-|-9---9-9-|
A:-------------|------------|-7---7-7-|-7---7-7-|
E:-------------|------------|---------|---------|
 
                  e                          e
G:-17-16-14~---|----19~-----|-17-16-14~---|----19~-----|
D:-------------|-19-19~-----|-------------|-19-19~-----|
A:-------------|------------|-------------|------------|
E:-------------|------------|-------------|------------|

G:-5-4-2---|---------|----------|-R-------||
D:---------|---------|----------|-R-------||
A:---------|-2-3-2---|----------|-R-------||
E:---------|---------|-6---7-R--|-R-------||


Please write your oppinion down in the comments.

| *  let ring
| R  rest
| /  slide up
| ~  vibrato
| b  bend
| e  eight note
===============================================================================
Добавлено: 29.03.2015
Другие материалы по этой песне:
  • Аккорды и текст

Страница создана 29.03.2015
http://primanota.ru/misc-soundtrack/dragon-age-theme-chords.htm
Привет, Гость.
Предлагаем пройти революционный курс по гитаре.
Подарок от PrimaNota.Ru, забирай!