PrimaNota.ru - самый крупный в мире бесплатный архив песенных текстов, аккордов, табулатур и нот


Misc Soundtrack - Disco Inferno - Village People Medley - бас-таба, видео

Регистрация Запомнить меня
Войти через:  Facebook Google Twitter Vk Yandex Mail.ru

Misc Soundtrack - Disco Inferno - Village People Medley - бас-таба, видео

Печатать
Просмотров: 148
-------------------------------------------------------------------------------
                             Village People Medley -Disco Inferno
-------------------------------------------------------------------------------
Tabbed by:Tyran 
E-mail: caitsullivan57@gmail.com

Tuning:EADG

G|---------------------------------------------------------------------------|
D|---------------------------------------------------------------------------|
A|-3-3-3-3-3-3-3-3-3-3-3-3-3-3-3-3-3-3-3-3-3-3-3-3-3-3-3---------------------|
E|---------------------------------------------------------------------------|
  A
G|----------------------------------------------------------5---5---5-5---5--|
D|---3---3---3-3---3---3---3---3-3---3---5---5---5-5---5---------------------|
A|--------------------------------------------------------3---3---3-----3----|
E|-1---1---1-----1---1---1---1-----1---3---3---3-----3-----------------------|

G|---------------------5---5---5-5---5---------------------3---3---3-3---3---|
D|---5---5---5-5---5---------------------3---3---3-3---3---------------------|
A|-------------------3---3---3-----3---------------------1---1---1-----1-----|
E|-3---3---3-----3---------------------1---1---1-----1-----------------------|
                                     B
G|-----------------------------5---5--------------------------------------------------------|
D|---3---3---3-3---3---3---3-------------3---3---3-3---3---3---3---3-3---3---3---3---3-3--3-|
A|---------------------------3---3----------------------------------------------------------|
E|-1---1---1-----1---1---1-------------1---1---1-----1---1---1---1-----1---1---1---1-----1--|

G|---------------------3---3---3-3---3----------------------3---3---3-3---3---5---5---5-5---5-|
D|---6---6---6-6---6----------------------6---6---6-6---6-------------------------------------|
A|-------------------1---1---1-----1----------------------1---1---1-----1---3---3---3-----3---|
E|-4---4---4-----4---------------------4----4---4-----4---------------------------------------|

G|---------------------------------------------------------------------------|
D|---3---3---3-3---3---3---3---3-3---3---3---3---3-3---3---6---6---6-6---6---|
A|---------------------------------------------------------------------------|
E|-1---1---1-----1---1---1---1-----1---1---1---1-----1---4---4---4-----4-----|

G|---3---3---3-3---3---------------------3---3---3-3---3---5---5---5-5---5---|
D|---------------------6---6---6-6---6---------------------------------------|
A|-1---1---1-----1---------------------1---1---1-----1---3---3---3-----3-----|
E|-------------------4---4---4-----4-----------------------------------------|
  C 
G|---------------------------------------------|
D|---------------------------------------------| D: CLAP 
A|-----------FOR C REPEAT SECTION A------------|
E|---------------------------------------------|
  E
G|-----------------------------------------------------------------|
D|-------------------------------------------------0-0-0-0---------|
A|-3-3-3-3---------0-0-0-0-----------------3-3-3-2-----------------|
E|---------3-3-3-3---------0-0-0-0-1-1-1-1-----------------3-3-3-3-|
  F
G|---------------------------|
D|----FOR F REPEAT SECTION E-|
A|---------------------------|
E|---------------------------|
  G
G|-----------------------------------------------|
D|-----------------------FOR G REPEAT SECTION E--|
A|-----------------------------------------------|
E|-----------------------------------------------|
  H
G|----------------------------------|
D|----------FOR H REPEAT SECTION E--|
A|----------------------------------|
E|----------------------------------|
  I
G|---------------------------------------------------------------|
D|---------------------------------------------------------------|
A|-3-3-3-3-3-3-3-3-3-3-3-3-3-3-3-3-3-3-3-3-3-3-3-3-3-------------|
E|---------------------------------------------------------------|
  J
G|-------------------------------1---2---------------------------------|
D|-----------------0-0-0-0-0-0-------------------------2-0-0-----------|
A|---------------------------------0---1-1-1-1-1-1-1-1-------3-3-1-0---|
E|-1-1-1-1-1-1-1-1-------------4-------------------------------------3-|
  K
G|-------------------------------1---2-----------------------------------------|
D|-----------------0-0-0-0-0-0-------------------------2-0-0-------------------|
A|---------------------------------0---1-1-1-1-1-1-1-1-------3-3-1-0---3-3-3-3-|
E|-1-1-1-1-1-1-1-1-------------4-------------------------------------3---------|
  L
G|----------------------------------5---6---7-7---7---7-7---7---7-7---7---------|
D|---3-3---3---3-3---3---3-3---3------------------------------------------3---4-|
A|--------------------------------3---4---5-----5---5-----5---5-----5-----------|
E|-1-----1---1-----1---1-----1------------------------------------------1---2---|

G|-----------------------------------------5-5---5---5-5---5---5-5---5----8---9-|
D|---5-5---5---5-5---5---5---5-5---5---5----------------------------------------|
A|---------------------------------------3-----3---3-----3---3-----3---6----7---|
E|-3-----3---3-----3---3---3-----3---3------------------------------------------|

G|--------------------------------5---6---7-7---7---7-7---7---7-7---7---------|
D|--3-3---3---3-3---3---3-3---3-----------------------------------------3---4-|
A|------------------------------3---4---5-----5---5-----5---5-----5-----------|
E|-1----1---1-----1---1-----1-----------------------------------------1---2---|

G|-------------------------------------------6-6---6---6-6---6---6-6---6-----|
D|---5-5---5---5-5---5---5-5---5---5-5---5-----------------------------------|
A|-----------------------------------------3-----3---3-----3---3-----3---3-3-|
E|-3-----3---3-----3---3-----3---3-----3-------------------------------------|
  M
G|---------------------------------5---6---7-7---7---7-7---7---7-7---7---------|
D|---3-3---3---3-3---3---3-3---3-----------------------------------------3---4-|
A|-------------------------------3---4---5-----5---5-----5---5-----5-----------|
E|-1-----1---1-----1---1-----1-----------------------------------------1---2---|

G|-------------------------------------------5-5---5---5-5---5---5-5---5-----|
D|---5-5---5---5-5---5---5-5---5---5-5---5-----------------------------------|
A|-----------------------------------------3-----3---3-----3---3-----3---3-3-|
E|-3-----3---3-----3---3-----3---3-----3-------------------------------------|

G|--------------|
D|-0-2-3-3-3----|
A|--------------|
E|-----------1--|



===============================================================================
Добавлено: 29.03.2015
Другие материалы по этой песне:
  • Аккорды и текст

Страница создана 29.03.2015
http://primanota.ru/misc-soundtrack/disco-inferno-village-people-medley-chords.htm
Привет, Гость.
Предлагаем пройти революционный курс по гитаре.
Подарок от PrimaNota.Ru, забирай!