PrimaNota.ru - самый крупный в мире бесплатный архив песенных текстов, аккордов, табулатур и нот


Misc Soundtrack - Disco Inferno - Celebration A Night To Remember - бас-таба, видео

Регистрация Запомнить меня
Войти через:  Facebook Google Twitter Vk Yandex Mail.ru

Misc Soundtrack - Disco Inferno - Celebration A Night To Remember - бас-таба, видео

Печатать
Просмотров: 134
Уроки эстрадного вокала в Санкт-Петербурге
-------------------------------------------------------------------------------
                 CELEBRATION/A NIGHT TO REMEMBER - Disco Inferno
-------------------------------------------------------------------------------

Tabbed by: Cait :)
Email: caitsullivan57@gmail.com


         A                      B(5TH) C   D(9TH)   
G|---------------------------------------------------------------------------|
D|---------------------------------------------------------------------------|
A|---------------------------------------------------------------------------|
E|--3-3--0-0-1-1-0-1-0-3-3-3-3--x6-----3-33-x16-bars-------------------------|

     E                                           F
G|---------------------------------------------------------------------------|
D|---------------------------------0-0-00-0----------------------------------|
A|--3-33--2-22-----------00-00-0-0-------------------------------------------|
E|-------------0-00-0-00-------------------------0-0-1-1-0-1-0-3-3-3-3-x8----|

    G                      H(3RD)I(5TH) J
G|---------------------------------------------------------------------------|
D|---------------------------------------------------------------------------|
A|-0-00----------3-3---------------------------------------------------------| 11 = 1 AND 1 NOT ELEVEN
E|------0-00-3-3-----1-11-x6------------1-11-0-00-x3-1-2-3-----3-3-3-3-3-----|

            K                           
G|------------------------------------------|
D|------------------------------------------|
A|--5-3-----0-00----------3-3---------------|
E|------1--------0-00-3-3-----1-11-x2-------|

    L              M
G|---------------------------------------------------------------|
D|------------------------------------------------00-00-0-0------|
A|-----------------3-33-2-22------------00-00-0-0----------------|
E|--3-3---3-33-x8------------0-00-0-00---------------------------|

   N                   O   Q(9TH)     R
G|-----------------------------------------------------------------------------|
D|-----------------------------------------------------------------0-0-0-------|
A|------------------------------------3-33-2-22-----------0-0-0-0--------------|
E|-0-0-1-1-0-1-0-3-x5--3-33-x33-----------------0-00-0-00-----------------3-3--|
Добавлено: 29.03.2015
Другие материалы по этой песне:
  • Аккорды и текст

Страница создана 29.03.2015
http://primanota.ru/misc-soundtrack/disco-inferno-celebration-a-night-to-remember-chords.htm
Привет, Гость.
Предлагаем пройти революционный курс по гитаре.
Подарок от PrimaNota.Ru, забирай!