PrimaNota.ru - самый крупный в мире бесплатный архив песенных текстов, аккордов, табулатур и нот


Misc Soundtrack - Damned - таба, видео

Регистрация Запомнить меня
Войти через:  Facebook Google Twitter Vk Yandex Mail.ru

Misc Soundtrack - Damned - таба, видео

Печатать
Просмотров: 120
Уроки эстрадного вокала в Санкт-Петербурге
Tabbed by ear, i'm sure it's 99% correct.
Standard tuning. ( EADGBe )
This song is in the Black Ops Zombie lobby.
Original author: Treyarch Sound, Kevin Sherwood.

Guitar 1
(00:00)

e|--19-----19-----19---19-----19-----19---|
B|----17-----17-----17---17-----17-----17-|
G|------16-----16----------16-----16------|
D|----------------------------------------|
A|----------------------------------------|
E|----------------------------------------|


e|--20-----20-----20---22-----20-----20----|
B|----17-----17-----17---17-----17------17-|
G|------17-----17----------17------17------|
D|-----------------------------------------|
A|-----------------------------------------|
E|-----------------------------------------|

(00:10)

e|--19-----19-----19---19-----19-----19---|
B|----17-----17-----17---17-----17-----17-|
G|------16-----16----------16-----16------|
D|----------------------------------------|
A|----------------------------------------|
E|----------------------------------------|


e|--20-----20-----20---22-----20-----20----|
B|----17-----17-----17---17-----17------17-|
G|------17-----17----------17------17------|
D|-----------------------------------------|
A|-----------------------------------------|
E|-----------------------------------------|

(00:21)

e|--19-----19-----19---19-----19-----19---|
B|----17-----17-----17---17-----17-----17-|
G|------16-----16----------16-----16------|
D|----------------------------------------|
A|----------------------------------------|
E|----------------------------------------|


e|--20-----20-----20---22-----20-----20----|
B|----17-----17-----17---17-----17------17-|
G|------17-----17----------17------17------|
D|-----------------------------------------|
A|-----------------------------------------|
E|-----------------------------------------|

(00:31)

e|--19-----19-----19---19-----19-----19---|
B|----17-----17-----17---17-----17-----17-|
G|------16-----16----------16-----16------|
D|----------------------------------------|
A|----------------------------------------|
E|----------------------------------------|


e|--20-----20-----20---22-----20-----20----|
B|----17-----17-----17---17-----17------17-|
G|------17-----17----------17------17------|
D|-----------------------------------------|
A|-----------------------------------------|
E|-----------------------------------------|

(00:42)

e|--19-----19-----19---19-----19-----19---|
B|----17-----17-----17---17-----17-----17-|
G|------16-----16----------16-----16------|
D|----------------------------------------|
A|----------------------------------------|
E|----------------------------------------|


e|--20-----20-----20---22-----20-----20----|
B|----17-----17-----17---17-----17------17-|
G|------17-----17----------17------17------|
D|-----------------------------------------|
A|-----------------------------------------|
E|-----------------------------------------|

(00:53)


e|--19-----19-----19---19-----19-----19---|
B|----17-----17-----17---17-----17-----17-|
G|------16-----16----------16-----16------|
D|----------------------------------------|
A|----------------------------------------|
E|----------------------------------------|


e|--20-----20-----20---22-----20-----19----|
B|----17-----17-----17---17-----17------17-|
G|------17-----17----------17------17------|
D|-----------------------------------------|
A|-----------------------------------------|
E|-----------------------------------------|

(01:04)

e|--18-----18-----18---18-----18-----18---|
B|----20-----20-----20---20-----20-----20-|
G|------19-----19----------19-----19------|
D|----------------------------------------|
A|----------------------------------------|
E|----------------------------------------|


e|--19-----19-----19---19-----19-----19---|
B|----20-----20-----20---20-----20-----20-|
G|------21-----21----------21-----21------|
D|----------------------------------------|
A|----------------------------------------|
E|----------------------------------------|

(01:14)

e|--18-----18-----18---18-----18-----18---|
B|----20-----20-----20---20-----20-----20-|
G|------19-----19----------18-----18------|
D|----------------------------------------|
A|----------------------------------------|
E|----------------------------------------|

e|--18-----18-----18-----18-----18-----18-----18-----18-----18-----18-------|
B|----20-----20-----20-----20-----20-----20-----20-----20-----20-----20-----|
G|------18-----18-----19-----19-----18-----18-----18-----19-----19-----18---|
D|--------------------------------------------------------------------------|
A|--------------------------------------------------------------------------|
E|--------------------------------------------------------------------------|

(01:29) ( repeat this until the end )

e|--21-18----22-18----|
B|--------19-------19-|
G|--------------------|
D|--------------------|
A|--------------------|
E|--------------------|

Guitar 2
(00:42)

e|--24(24)(24)---19(19)(19)---20(20)(20)-|
B|---------------------------------------|
G|---------------------------------------|
D|---------------------------------------|
A|---------------------------------------|
E|---------------------------------------|

(00:53)

e|--24(24)(24)---19(19)(19)---17(17)(17)-|
B|---------------------------------------|
G|---------------------------------------|
D|---------------------------------------|
A|---------------------------------------|
E|---------------------------------------|

(01:12)

e|--24-24---22-22---19-19-|
B|------------------------|
G|------------------------|
D|------------------------|
A|------------------------|
E|------------------------|
Добавлено: 17.06.2013
Другие материалы по этой песне:
  • Аккорды и текст

Страница создана 17.06.2013
http://primanota.ru/misc-soundtrack/damned-chords.htm
Привет, Гость.
Предлагаем пройти революционный курс по гитаре.
Подарок от PrimaNota.Ru, забирай!