PrimaNota.ru - самый крупный в мире бесплатный архив песенных текстов, аккордов, табулатур и нот


Misc Soundtrack - Best Two Years - Falling - таба, видео

Регистрация Запомнить меня
Войти через:  Facebook Google Twitter Vk Yandex Mail.ru

Misc Soundtrack - Best Two Years - Falling - таба, видео

Печатать
Просмотров: 82
-------------------------------------------------------------------------------
                             Falling - The Best Two Years
-------------------------------------------------------------------------------
Tabbed by: Jones Colver


e|---------------------------------------------------------------------------|
B|-------1---1------1---1-----1---1------0-h1--------------------------------|
G|-------2---2------2---2-----2---2------2-----------------------------------|
D|---------------------------------------2-----------------------------------|
A|---0-----------------------------------------------------------------------|
E|---------------------------------------------------------------------------|


e|---------------------------------------------------------------------------|
B|-------1---1------1---1-----1---1------0-h1--------------------------------|
G|-------2---2------2---2-----2---2------2-----------------------------------|
D|---------------------------------------2-----------------------------------|
A|---0-----------------------------------------------------------------------|
E|---------------------------------------------------------------------------|


e|---------------------------------------------------------------------------|
B|-------1---1------1---1-----1---1------0~----------------------------------|
G|-------2---2------2---2-----2---2------2~----------------------------------|
D|---------------------------------------2~----------------------------------|
A|---0-----------------------------------------------------------------------|
E|---------------------------------------------------------------------------|

Am          G        Em   Asus2 Am
I know I've found so many reasons
Am        G       Em     Asus2 Am
To justify my new entwine
Am      G      Em          Asus2 Am
All the people I've been teasing
     Am       G         Em           Asus2 Am
are working hard to change my mind

e|---------------------------------------------------------------------------|
B|-------1---1------1---1-----1---1------0-h1--------------------------------|
G|-------2---2------2---2-----2---2------2-----------------------------------|
D|---------------------------------------2-----------------------------------|
A|---0-----------------------------------------------------------------------|
E|---------------------------------------------------------------------------|

e|---------------------------------------------------------------------------|
B|-------1---1------1---1-----1---1------0-h1--------------------------------|
G|-------2---2------2---2-----2---2------2-----------------------------------|
D|---------------------------------------2-----------------------------------|
A|---0-----------------------------------------------------------------------|
E|---------------------------------------------------------------------------|


Am       G           Em      Asus2 Am
Now I've abused all my excuses
Am            G       Em      Asus2 Am
And I've been waiting for a sign
Am   G      Em        Asus2 Am
I know deep down the truth is
Am    G       Em        Asus2 Am
I'm afraid to tow the line

C      G        Am                            Asus2 
When I question how this happened when this happened
C       G         E
I start wondering why
C         G      Am                         Asus2 
could one person make a difference be the difference
C     G        E
if he chose to try



e|---------------------------------------------------------------------------|
B|-----/10----------8-8---/10-------------8----------------------------------|
G|---------------------------------------------------------------------------|
D|---------------------------------------------------------------------------|
A|-------0-------0---------0---------0---------------------------------------|
E|-----------0-------0----------0---------0----------------------------------|

e|--------0------------------------------------0-----------------------------|
B|-----------3---0----1----0-----------------1---3--0---1--0-----------------|
G|-----2-----------------------2---0--0h2--2------------------2--------------|
D|---------------------------------------------------------------------------|
A|---------------------------------------------------------------------------|
E|---------------------------------------------------------------------------|

e|-----5----3----1p0-------0----------0--------------------------------------|
B|---------------------3-----------1-----3--0----1--0------------------------|
G|------------------------------2----------------------2---------------------|
D|---------------------------------------------------------------------------|
A|---------------------------------------------------------------------------|
E|---------------------------------------------------------------------------|

C      G        Am                            Asus2
When I question how this happened when this happened
C       G         E
I start wondering why
C         G      Am                         Asus2
could one person make a difference be the difference
C     G        E
if he chose to try


      Falling
e|--------------0---------------------0--------------------------------------|
B|-----------1-----1-----1---------1-----1-----1-----------------------------|
G|--------0-----------0---------0-----------0--------------------------------|
D|---------------------------------------------------------------------------|
A|-----3---------------------2-----------------------------------------------|
E|---------------------------------------------------------------------------|

       Far         from       Grace
e|--------------0----------------------3-------------------------------------|
B|-----------1-----1-----1----------1-----1-----1----------------------------|
G|--------2-----------2----------0-----------0-------------------------------|
D|---------------------------------------------------------------------------|
A|-----0---------------------------------------------------------------------|
E|----------------------------3----------------------------------------------|

       I'm Far     
e|--------------0---------------------0--------------------------------------|
B|-----------1-----1-----1---------1-----1-----1-----------------------------|
G|--------0-----------0---------0-----------0--------------------------------|
D|---------------------------------------------------------------------------|
A|-----3---------------------2-----------------------------------------------|
E|---------------------------------------------------------------------------|

        Away
e|--------------0----------------------3-------------------------------------|
B|-----------1-----1-----1----------1-----1-----1----------------------------|
G|--------2-----------2----------0-----------0-------------------------------|
D|---------------------------------------------------------------------------|
A|-----0---------------------------------------------------------------------|
E|----------------------------3----------------------------------------------|

I got to Get down on my      Knees again  I got to
e|--------------0---------------------0--------------------------------------|
B|-----------1-----1-----1---------1-----1-----1-----------------------------|
G|--------0-----------0---------0-----------0--------------------------------|
D|---------------------------------------------------------------------------|
A|-----3---------------------2-----------------------------------------------|
E|---------------------------------------------------------------------------|

      Learn to be a          Real Friend I got to
e|--------------0----------------------3-------------------------------------|
B|-----------1-----1-----1----------1-----1-----1----------------------------|
G|--------2-----------2----------0-----------0-------------------------------|
D|---------------------------------------------------------------------------|
A|-----0---------------------------------------------------------------------|
E|----------------------------3----------------------------------------------|

       Give my all to        Someone else I got to
e|--------------0---------------------0--------------------------------------|
B|-----------1-----1-----1---------1-----1-----1-----------------------------|
G|--------0-----------0---------0-----------0--------------------------------|
D|---------------------------------------------------------------------------|
A|-----3---------------------2-----------------------------------------------|
E|---------------------------------------------------------------------------|

       Learn again to         Lose myself I got to 
e|--------------0----------------------3-------------------------------------|
B|-----------1-----1-----1----------1-----1-----1----------------------------|
G|--------2-----------2----------0-----------0-------------------------------|
D|---------------------------------------------------------------------------|
A|-----0---------------------------------------------------------------------|
E|----------------------------3----------------------------------------------|

       Put my faith in       God above I got to
e|--------------0---------------------0--------------------------------------|
B|-----------1-----1-----1---------1-----1-----1-----------------------------|
G|--------0-----------0---------0-----------0--------------------------------|
D|---------------------------------------------------------------------------|
A|-----3---------------------2-----------------------------------------------|
E|---------------------------------------------------------------------------|

       Turn my selfish-       ness
e|--------------0----------------------3-------------------------------------|
B|-----------1-----1-----1----------1-----1-----1----------------------------|
G|--------2-----------2----------0-----------0-------------------------------|
D|---------------------------------------------------------------------------|
A|-----0---------------------------------------------------------------------|
E|----------------------------3----------------------------------------------|

 To   Love
e|--------------0---------------------0--------------------------------------|
B|-----------1-----1-----1---------1-----1-----1-----------------------------|
G|--------0-----------0---------0-----------0--------------------------------|
D|---------------------------------------------------------------------------|
A|-----3---------------------2-----------------------------------------------|
E|---------------------------------------------------------------------------|

e|--------------0----------------------3-----------------------0-------------|
B|-----------1-----1-----1----------1-----1-----1--------------1-------------|
G|--------2-----------2----------0-----------0-----------------0-------------|
D|-------------------------------------------------------------2-------------|
A|-----0-------------------------------------------------------3-------------|
E|----------------------------3--------------------------------0-------------|


(I couldn't find the lyrics anywhere online so here they are together)

I know I've found so many reasons
To justify my new entwine (?)
All the people I've been teasing
are working hard to change my mind

Now I've abused all my excuses
And I've been waiting for a sign
I know deep down the truth is
I'm afraid to tow the line

When I question how this happened when this happened
I start wondering why
could one person make a difference be the difference
if he chose to try

When I question how this happened when this happened
I start wondering why
could one person make a difference be the difference
if he chose to try

Falling, far from grace
I'm far away

I got to get down on my knees again
I got to learn to be a real friend
I got to give my all to someone else
I got to learn again to lose myself

I got to put my faith in God above
I got to turn my selfishness
to love
Добавлено: 30.07.2013
Другие материалы по этой песне:
  • Аккорды и текст

Страница создана 30.07.2013
http://primanota.ru/misc-soundtrack/best-two-years-falling-chords.htm
Привет, Гость.
Предлагаем пройти революционный курс по гитаре.
Подарок от PrimaNota.Ru, забирай!