PrimaNota.ru - самый крупный в мире бесплатный архив песенных текстов, аккордов, табулатур и нот


Misc Soundtrack - Badmaash Company - Fakeera - таба, видео

Регистрация Запомнить меня
Войти через:  Facebook Google Twitter Vk Yandex Mail.ru

Misc Soundtrack - Badmaash Company - Fakeera - таба, видео

Печатать
Просмотров: 155
                 Fakeera
       From the hindi movie Badmaash Company

By Sanjeev George and Thomas George
sanjeevGeorge123@yahoo.co.in
Tune ½ step down
Intro : Dm   Bb   Gm   with the riff
Intro riff
e|-------------------------------------------|
B|---------------------10-10/13-13-13\-------|
G|----10-10-9-10-10/12-----------------------|
D|-------------------------------------------|
A|-------------------------------------------|
E|-------------------------------------------|

e|-------------------------------------------|
B|---------------------10--------------------|
G|----10-10-9-10-10/12----12-10-10-9-10------|
D|-------------------------------------------|
A|-------------------------------------------|
E|-------------------------------------------|

Verse 1:
  Dm                Bb                Dm
Chaani jo khaak to mitt ke sona, tu ban gaya   
  Dm                Bb               Dm
Ghamon ki aag mein tap ke sooraj, tu ban gaya
  Dm                Bb                Dm
Chaani jo khaak to mitt ke sona, tu ban gaya   
  Dm                Bb               Dm
Ghamon ki aag mein tap ke sooraj, tu ban gaya

Pre chorus 1:
    Gm         Am         Bb        C
Aaj paaya hai tuney, sab kho ke mureeda
      Gm        Am         Bb        C
Mili jannat tujhe to, jab bigda naseeba

Chorus:
Fakeera fakira……
e|----------------------------------------------------------|
B|----------------------------------------------------------|
G|----------------------------------------------------------|
D|----7----5--3-------------------7----5--3-----------------|
A|----5----3--1--------3---3-5----5----3--1----55555555--7--|
E|-----------------3h5---5---------------------33333333--5--|
                                                Fakeera   ah!

e|-----------------------------------------------|
B|-----------------------------------------------|
G|-----------------------------------------------|
D|----7----5--3-------------------7----5--3------|
A|----5----3--1--------3---3-5----5----3--1------|
E|-----------------3h5---5-----------------------|
Then intro riff
Solo:
e|-----------15---------------15-13v-------13-12v----------------|
B|--------13----15v--------13-----------15---------13------------|
G|----/14--------------/14----------------------------12-14v-----|
D|---------------------------------------------------------------|
A|---------------------------------------------------------------|
E|---------------------------------------------------------------|

e|---------------------------------------------------------------------------|
B|---------------------------------------13-15v----15p13----13-15-13h15v-----|
G|--14p12\10------10-9---------------/14-----------------14------------------|
D|-------------12-------10-10/12v--------------------------------------------|
A|---------------------------------------------------------------------------|
E|---------------------------------------------------------------------------|

e|----------------------15-17-\15-13-15v----15p13-10-13-12-|
B|--15p13----13---15-18------------------------------------|
G|--------14-----------------------------------------------|
D|---------------------------------------------------------|
A|---------------------------------------------------------|
E|---------------------------------------------------------|


e|------------------------------------------|
B|--13-10-----------------------------------|
G|--------12b14r12-p10----10-9-10vvvvvv-----|
D|---------------------12-------------------|
A|------------------------------------------|
E|------------------------------------------|

Stanza 1
  Dm               C           Bb          Am
Haathon se nikli manzil jab yeh daaman chhuth gaya
   Gm            Am            Bb       C
Aye bekhabar tu benoor ho ke roshan ho gaya
   Dm                    C          Bb          Am
Bhari hai yeh khaali si jholi jo tu bhatka dar badar
   Gm            Am            Bb            C
Yeh bhi na jaane yeh kaafir ki dua ka hai asar

Prechorus 2:
    G5        A5          Bb5    C5
Jo taare se toota, sab khwaish milegi
     G5            A5          Bb5        C5
Zara haathon ko phailaa, mannatein sab milengi
Chorus again
Verse chanting : Dm   Bb   Gm   Bb   as required
Stanza 2: same chords as stanza 1
Hua tabah aur hadd se zyada khoya jab qaraar
Udhi udhi tab saansein jaise udta hai gubaar
Socha karey kis pal mein dil ko raahat hai mili
Khuda ke ghar mein taalim tujhko gir ke jab mili

PreChorus 3:same chords as prechorus 2

Aaj paaya hai tuney, sab kho ke mureeda
Mili jannat tujhe to, jab bigda naseeba

Chorus:
Fakeera till end

Intro riff in the end

Please rate and comment. Thank you
Добавлено: 14.06.2012
Другие материалы по этой песне:
  • Аккорды и текст

Страница создана 14.06.2012
http://primanota.ru/misc-soundtrack/badmaash-company-fakeera-chords.htm
Привет, Гость.
Предлагаем пройти революционный курс по гитаре.
Подарок от PrimaNota.Ru, забирай!