PrimaNota.ru - самый крупный в мире бесплатный архив песенных текстов, аккордов, табулатур и нот


Misc Performance - That Metal Show - Kirk Hammett And Michael Schenker Jam - таба, видео

Регистрация Запомнить меня
Войти через:  Facebook Google Twitter Vk Yandex Mail.ru

Misc Performance - That Metal Show - Kirk Hammett And Michael Schenker Jam - таба, видео

Печатать
Просмотров: 72
Chord progression from That Metal Show | Kirk Hammett & Michael Schenker. Enjoy!


E|------------------------------------------------------|
B|------------------------------------------------------|
G|------------------------------------------------------|
D|------------------------------------------------------|      4x                    s = slide
A|--0----5 s 7-----7-----10-----7-----------------------|
E|--0----3 s 5-----5-----8------5-----------------------|

E|------------------------------------------------------|
B|------------------------------------------------------|
G|------------------------------------------------------|      4x
D|--0----5 s 7-----7-----10-----7-----------------------|
A|--0----3 s 5-----5-----8------5-----------------------|
E|------------------------------------------------------|
Добавлено: 22.06.2016
Другие материалы по этой песне:
  • Аккорды и текст

Страница создана 22.06.2016
http://primanota.ru/misc-performance/that-metal-show-kirk-hammett-and-michael-schenker-jam-chords.htm
Привет, Гость.
Предлагаем пройти революционный курс по гитаре.
Подарок от PrimaNota.Ru, забирай!