PrimaNota.ru - самый крупный в мире бесплатный архив песенных текстов, аккордов, табулатур и нот


Misc Performance - John 5 - Betcha Cant Play This - таба, видео

Регистрация Запомнить меня
Войти через:  Facebook Google Twitter Vk Yandex Mail.ru

Misc Performance - John 5 - Betcha Cant Play This - таба, видео

Печатать
Просмотров: 59
-------------------------------------------------------------------------------
                             SONG NAME - Band Name
-------------------------------------------------------------------------------
Tabbed by:
E-mail:

Tuning:

e|--7-10---------------------------------------------------------------------|
B|-------7-10----------------------------------------------------------------|
G|-------------7/12-12-------------------------------------------------------|
D|---------------------11----------------------------------------------------|
A|-------------------------10/15-12-15-15b-----------------------------------|
E|---------------------------------------------------------------------------|

e|--7-10---------------------------------------------------------------------|
B|-------7-10----------------------------------------------------------------|
G|-------------7/12--12------------------------------------------------------|
D|----------------------11---------------------------------------------------|
A|--------------------------10/15-12-15--------------------------------------|
E|---------------------------------------17----------------------------------|

e|--7-10---------------------------------------------------------------------|
B|--------7-10---------------------------------------------------------------|
G|--------------7/12--12-----------------------------------------------------|
D|-----------------------11--------------------------------------------------|
A|--------------------------10/15-12-15--------------------------------------|
E|---------------------------------------21----------------------------------|




************************************

| /   slide up
| \   slide down
| h   hammer-on
| p   pull-off
| ~   vibrato
| +   harmonic
| x   Mute note
| b   Bend
| pb  Pre-bend
| br  Bend release
| pbr Pre-bend release
| brb Bend release bend

************************************
Добавлено: 22.09.2015
Другие материалы по этой песне:
  • Аккорды и текст

Страница создана 22.09.2015
http://primanota.ru/misc-performance/john-5-betcha-cant-play-this-chords.htm
Привет, Гость.
Предлагаем пройти революционный курс по гитаре.
Подарок от PrimaNota.Ru, забирай!