PrimaNota.ru - самый крупный в мире бесплатный архив песенных текстов, аккордов, табулатур и нот


Misc Original Songs - Cool Tunes - таба, видео

Регистрация Запомнить меня
Войти через:  Facebook Google Twitter Vk Yandex Mail.ru

Misc Original Songs - Cool Tunes - таба, видео

Печатать
Просмотров: 85
Artist: Daniel Alloway
Tabbed: 6/12/01

Key:
~ = Let It Ring

Here are some cool riff's and stuff I tabbed out.

#1
e|-----------------3--------------------------------|
b|--3-3-3-----0-------------------------------------|
g|----------3---0-----------------------------------|
d|--------------------------------------------------|
a|--------------------------------------------------|
E|--------------------------------------------------|

#2
e|--------------------------------------------------|
b|--1---1-----1---1-----1---1-----------------------|
g|-------2---------2---------2-0--------------------|
d|-------------------------------1-0----------------|
a|-----------------------------------3~-------------|
E|--------------------------------------------------|

#3
e|--------------------------------------------------|
b|--1~~~~~~~----------------------------------------|
g|----------0-2-0-2-0-2-0------------------------0~~|
d|-----------------------------------0---1---1------|
a|------------------------3~~~~~~~~3---3---3---3----|
E|--------------------------------------------------|
|......continued...................................|
e|--------------------------------------------------|
b|--------------------------------------------------|
g|~~~~--------0~~~----------------------------------|
d|----1---1----------1---0--------------------------|
a|------3---3------3---3---3~~~~~~~~----------------|
E|--------------------------------------------------|


hope ya had fun, feel free to e-mail me at
dman7386@hotmail.com
     
Добавлено: 23.06.2013
Другие материалы по этой песне:
  • Аккорды и текст

Страница создана 23.06.2013
http://primanota.ru/misc-original-songs/cool-tunes-chords.htm
Привет, Гость.
Предлагаем пройти революционный курс по гитаре.
Подарок от PrimaNota.Ru, забирай!