PrimaNota.ru - самый крупный в мире бесплатный архив песенных текстов, аккордов, табулатур и нот


Misc Jazz Standards - Aint Misbehaving - таба, видео

Регистрация Запомнить меня
Войти через:  Facebook Google Twitter Vk Yandex Mail.ru

Misc Jazz Standards - Aint Misbehaving - таба, видео

Печатать
Просмотров: 57
---------------------------------------------------------------------
------------------------------------------------0---0---0---3---0----
------------0---0---------------2-----------------------------------0
0---2---0-----------0---2---0-------0---2---0------------------------
---------------------------------------------------------------------
---------------------------------------------------------------------

------------------------------------------------------------
------------------------------------3---1---0---------------
------------------------0---0---0---------------0---2---0---
2---1---0---0---2---0---------------------------------------
------------------------------------------------------------
------------------------------------------------------------

A Gorrie (gromitthefish@aol.com)
     
Добавлено: 18.10.2013
Вам также может быть интересно:
Другие материалы по этой песне:
  • Аккорды и текст

Страница создана 18.10.2013
http://primanota.ru/misc-jazz-standards/aint-misbehaving-chords.htm
Привет, Гость.
Предлагаем пройти революционный курс по гитаре.
Подарок от PrimaNota.Ru, забирай!