PrimaNota.ru - самый крупный в мире бесплатный архив песенных текстов, аккордов, табулатур и нот


Misc Irish - Lanagans Ball - таба, видео

Регистрация Запомнить меня
Войти через:  Facebook Google Twitter Vk Yandex Mail.ru

Misc Irish - Lanagans Ball - таба, видео

Печатать
Просмотров: 87
From: eermih@dct.ac.uk

Here's another traditional Irish jig (6/8 time).  It follows on nicely
after "The Irish Washerwoman", which I posted a couple of weeks ago.
Standard guitar tuning {EADGBE} is used.  The chords above the TAB are
suggestions only.  As is common with these tunes, play part 1 twice then
part 2 twice.  Suggestions/comments welcome.

"Lanagan's Ball"

PART 1:

Em                 Em                 D                  D
------------------|------------------|------------------|------------------|
------------------|0--------0--2--3--|------------------|---0--------------|
---------0-----2--|------2-----------|---------------0--|2-----2--2--------|
2--4--2-----------|------------------|0--2--0--4--------|------------4--0--|
------------------|------------------|------------------|------------------|
------------------|------------------|------------------|------------------|
.  .  .  .  .  .   .  .  .  .  .  .   .  .  .  .  .  .   .  .  .  .  .  .

Em                 Em                 Em       Am        Em
------------------|------------------|0-----------------|------------------|
------------------|0--------0--2--3--|------0--1--------|0-----------------|
---------0-----2--|------2-----------|---------------2--|---0--------------|
2--4--2-----------|------------------|------------------|------2--2--------|
------------------|------------------|------------------|------------------|
------------------|------------------|------------------|------------------|
.  .  .  .  .  .   .  .  .  .  .  .   .  .  .  .  .  .   .  .  .  .  .  .


PART 2:

Em                 D                  Em                 D
0-----2--3-----0--|2--5--3--2--0-----|0-----2--3-----0--|2-----------------|
------------------|---------------3--|------------------|---3--------------|
------------------|------------------|------------------|------4--4--------|
------------------|------------------|------------------|------------------|
------------------|------------------|------------------|------------------|
------------------|------------------|------------------|------------------|
.  .  .  .  .  .   .  .  .  .  .  .   .  .  .  .  .  .   .  .  .  .  .  .

Em                 D                  Em       Am        Em
0-----2--3-----0--|2--5--3--2--0-----|0-----------------|------------------|
------------------|---------------4--|------0--1--------|0-----------------|
------------------|------------------|---------------2--|---0--------------|
------------------|------------------|------------------|------2--2--------|
------------------|------------------|------------------|------------------|
------------------|------------------|------------------|------------------|
.  .  .  .  .  .   .  .  .  .  .  .   .  .  .  .  .  .   .  .  .  .  .  .


________________________________________________________________________
Malcolm Hannah  (eermih@dct.ac.uk)                      Dundee, Scotland
Добавлено: 23.05.2012
Другие материалы по этой песне:
  • Аккорды и текст

Страница создана 23.05.2012
http://primanota.ru/misc-irish/lanagans-ball-chords.htm
Привет, Гость.
Предлагаем пройти революционный курс по гитаре.
Подарок от PrimaNota.Ru, забирай!