PrimaNota.ru - самый крупный в мире бесплатный архив песенных текстов, аккордов, табулатур и нот


Misc Irish - Congress Reel - аккорды и текст, таба, видео

Регистрация Запомнить меня
Войти через:  Facebook Google Twitter Vk Yandex Mail.ru

Misc Irish - Congress Reel - аккорды и текст, таба, видео

Печатать
Просмотров: 143
Congress Reel
Misc Irish
Subject: TAB: Congress Reel

Here is a fairly easy version of an Irish tune, The Congress Reel.

3h=hammer-on triplet (hammer-on 2nd note, pull-off for 3rd)

4/4 time, standard tuning

Part A
                 3h
E---------------|030-5-0-3-0-2---|0---------------|----------------|
B----------0-1-3-|--------------3-|----------0-1---|0---------------|
G--2-2-0-2-------|----------------|--2-2-0-2-----2-|--0-0-2-0-2-0-3-|
D----------------|----------------|----------------|----------------|
A----------------|----------------|----------------|----------------|
E----------------|----------------|----------------|----------------|


                 3h                3h
0---------------|303-5-0-3-0-----|--------0-3-0---|----------------|
----------0-1-3-|------------3-0-|131-1-3-------3-|1---0-----------|
--2-2-0-2-------|----------------|----------------|--2---0-2-0-1-3-|
----------------|----------------|----------------|----------------|
----------------|----------------|----------------|----------------|
----------------|----------------|----------------|----------------|


Part B

0-5-5-3-5-7-5-3-|0-5-5-5-3-0-0-3-|0-5-3---0-5-3---|0-5-5-5-3-0-0-3-|
----------------|----------------|------3-------3-|----------------|
----------------|----------------|----------------|----------------|
----------------|----------------|----------------|----------------|
----------------|----------------|----------------|----------------|
----------------|----------------|----------------|----------------|


                      3h
0-5-5-3-5-7-5-3-|0-5-5-5-3-0-0---|--------0-3-0---|----------------|
----------------|--------------0-|131-1-3-------3-|1---0-----------|
----------------|----------------|----------------|--2---0-2-0-1-3-|
----------------|----------------|----------------|----------------|
----------------|----------------|----------------|----------------|
----------------|----------------|----------------|----------------|


Chords: 
spaces indicate measures
Part A

Am AmG Am G Am AmG CG GAm

Part B

Am AmG G Am Am AmG CG GAm
*********************************************************************
| Kelly Cox                                                          |
| kellycox@znet.com                                                  |
| 415-967-6384                                                       |
|                                                                    |
|  Now Nortons, and Indians, and Greeves' won't do, they don't have  |
| the sould of a Vincent '52. -Richard Thompson                      |
*********************************************************************

Добавлено: 09.07.2012
Другие материалы по этой песне:
  • Аккорды и текст

Страница создана 23.05.2012
http://primanota.ru/misc-irish/congress-reel-chords.htm
Привет, Гость.
Предлагаем пройти революционный курс по гитаре.
Подарок от PrimaNota.Ru, забирай!