PrimaNota.ru - самый крупный в мире бесплатный архив песенных текстов, аккордов, табулатур и нот


Misc Computer Games - Zoo Tycoon 2 - Marine Animal Show - бас-таба, видео

Регистрация Запомнить меня
Войти через:  Facebook Google Twitter Vk Yandex Mail.ru

Misc Computer Games - Zoo Tycoon 2 - Marine Animal Show - бас-таба, видео

Печатать
Просмотров: 83
Marine Animal Show (Theme) - Bass Tab

Tuning: Standard

Note: This is from the expansion pack called "Marine Mania" 
for the PC game, "Zoo Tycoon 2."  It plays during marine 
animal shows.

[Intro]
G|------------------------------------------------------------|
D|------------------------------------------------------------|
A|-7-----------5---7-----------5---7-----------5---7----------|
E|----7-7----7---7----7-7----7---7----7-7----7---7------------|

[x4]
G|------------------------------------------------------------|
D|------------------------------------------------------------|
A|-7----5-7-7---5-7-7---7--7-5--------------------------------|
E|----7-------7-------7--------7------------------------------|

[x1]
G|------------------------------------------------------------|
D|-7----5-7-7---5-7-7---7--7-5--------------------------------|
A|----7-------7-------7--------7------------------------------|
E|------------------------------------------------------------|

[x1]
G|------------------------------------------------------------|
D|------------------------------------------------------------|
A|-7----5-7-7---5-7-7---7--7-5--------------------------------|
E|----7-------7-------7--------7------------------------------|

[x]
G|------------------------------------------------------------|
D|-9--9-7-9--9-7-7----7--7-5--------------------9--9----9-9-9-|
A|------------------7--------7-7----5-7-7---5-7---------------|
E|--------------------------------7-------7-------------------|

[x1]
G|------------------------------------------------------------|
D|------------------------------------------------------------|
A|-7--7-----5---7-7-7---5-5-7---7--7---5-5-7---7--7---5-5-5---|
E|-------7----7-------7--------------7--------------7-------7-|

[x1]
G|------------------------------------------------------------|
D|----5--7--5------5---7-7-5----------------------------------|
A|-7-----------7-7---7-------7-7--7---5-5-7---7-7-7---5-5-7-5-|
E|----------------------------------7---------------7---------|

[x1]
G|------------------------------------------------------------|
D|-5--5--5--5----------------5--5--5--5-----------------------|
A|-------------7-7--7--7---5-------------7-7--7-5-------------|
E|-----------------------7-------------------------7----------|

[x1]
G|------------------------------------------------------------|
D|-5--5--5--5-------------------------------------------------|
A|-------------7-7--7--7-7-7-5-5-5-5-5-5-5-5-5-5-5-5---5------|
E|---------------------------------------------------7---7----|


If there's any confusion, questions, or advice on how to 
improve it, please post a comment. Have fun playing, and 
please rate! -Rarrlow
Добавлено: 21.08.2015
Другие материалы по этой песне:
  • Аккорды и текст

Страница создана 21.08.2015
http://primanota.ru/misc-computer-games/zoo-tycoon-2-marine-animal-show-chords.htm
Привет, Гость.
Предлагаем пройти революционный курс по гитаре.
Подарок от PrimaNota.Ru, забирай!