PrimaNota.ru - самый крупный в мире бесплатный архив песенных текстов, аккордов, табулатур и нот


Misc Computer Games - Zelda Theme - таба, видео

Регистрация Запомнить меня
Войти через:  Facebook Google Twitter Vk Yandex Mail.ru

Misc Computer Games - Zelda Theme - таба, видео

Печатать
Просмотров: 107
Song: Legend of Zelda Theme song
Artist: Not sure
Tabbed By: Corey Martin  aliencrystal@hotmail.com>


>From the video game "The Legend of Zelda" for the NES

I could not find a tab for this song anywhere, so i figured
it out myself.


Intro:

e|-----------------------|------------------------|------------|
B|-----------------------|------------------------|------------|
G|-----------------------|------------------------|------------|
D|-----------------------|------------------------|------------|
A|-10--------10---8/7/8--|--10--------10---9/8/9--|--9-9-9-9---|
E|-----10-10-------------|------11-11-------------|------------|

Alternate Intro:

e|-----------------|--------------------|------------|
B|-----------------|--------------------|------------|
G|-----------------|--------------------|------------|
D|-9--9-9-9-9-7-9--|--9-9-9-7-9----9----|------------|
A|-----------------|-----------------9--|--9-9-9-9---|
E|-----------------|--------------------|------------|

Main:

e|--------------------|-------------------|----------------------|
B|--------------------|-------------------|----------------------|
G|--------------------|-11--11-11-13-15-16|-16-16-14-12-14-12-11-|
D|--9----9-9-11-13-14-|-------------------|----------------------|
A|----9---------------|-------------------|----------------------|
E|--------------------|-------------------|----------------------|


e|------------------|--------------|----------------------|
B|------------------|--------------|----------------------|
G|-11-9-11-12-12-11-|-7-9-11-11-9--|-6-8-9--13------------|
D|------------------|--------------|-----------15---------|
A|------------------|--------------|----------------------|
E|------------------|--------------|----------------------|

e|-------------------------|
B|-------------------------|
G|-------------------------|
D|-------------------------|
A|-9-9-9--9-9-9--9-9-9--9--|      repeat main part as desired
E|-------------------------|
     
Добавлено: 26.06.2013
Другие материалы по этой песне:
  • Аккорды и текст

Страница создана 26.06.2013
http://primanota.ru/misc-computer-games/zelda-theme-chords.htm
Привет, Гость.
Предлагаем пройти революционный курс по гитаре.
Подарок от PrimaNota.Ru, забирай!