PrimaNota.ru - самый крупный в мире бесплатный архив песенных текстов, аккордов, табулатур и нот


Misc Computer Games - Zelda 1 game over - таба, видео

Регистрация Запомнить меня
Войти через:  Facebook Google Twitter Vk Yandex Mail.ru

Misc Computer Games - Zelda 1 game over - таба, видео

Печатать
Просмотров: 85


E||--15----------------------------------|
B||--------------------17----16----------|
G||--------------17----------------------|
D||--------17----------------------17----|
A||--------------------------------------|
E||--------------------------------------|

E||--19----------17----------------17----|
B||--------------------------17----------|
G||--------16----------17----------------|
D||--------------------------------------|
A||--------------------------------------|
E||--------------------------------------|

E||--16----------------------17----------|
B||--------------15----17----------------|
G||--------17----------------------17----|
D||--------------------------------------|
A||--------------------------------------|
E||--------------------------------------|

E||--------17----16----------------------|
B||--18----------------------15----18----|
G||--------------------17----------------|
D||--------------------------------------|
A||--------------------------------------|
E||--------------------------------------|

E||--------------------------------------|
B||--17----------------17----15----------|
G||--------------17----------------14----|
D||--------17----------------------------|
A||--------------------------------------|
E||--------------------------------------|

E||--------------||
B||--------15----||
G||--16---------o||
D||-------------o||
A||--------------||
E||--------------||



Добавлено: 25.12.2013
Другие материалы по этой песне:
  • Аккорды и текст

Страница создана 25.12.2013
http://primanota.ru/misc-computer-games/zelda-1-game-over-chords.htm
Привет, Гость.
Предлагаем пройти революционный курс по гитаре.
Подарок от PrimaNota.Ru, забирай!