PrimaNota.ru - самый крупный в мире бесплатный архив песенных текстов, аккордов, табулатур и нот


Misc Computer Games - Yoshis Island - Story Music Box - таба, видео

Регистрация Запомнить меня
Войти через:  Facebook Google Twitter Vk Yandex Mail.ru

Misc Computer Games - Yoshis Island - Story Music Box - таба, видео

Печатать
Просмотров: 68
Story Music Box Theme - Tab

Tuning: Standard

Capo: 3

Note: In the Nintendo game Yoshi's Island: Super Mario 
Advance 3, the beginning tells the story of how the Mario 
brothers were separated.  This is the theme that goes along 
with the intro story.  It's not 100% perfect, but pretty close.

[Intro]
E|----0-0-0---0-0-0---0-0-0------------4----------------------|
B|--2-------0-------2-------0-0-0-5--5------------------------|
G|------------------------------------------------------------|
D|------------------------------------------------------------|
A|------------------------------------------------------------|
E|------------------------------------------------------------|


[x2]
E|--5--4-5-4--0--2--0-2-0-------------------------------------|
B|-------------------------2--3--2-3-2------------------------|
G|--------------------------------------2--4-2-1--------------|
D|-----------------------------------------------4-2-0--------|
A|-----------------------------------------------------4-2----|
E|------------------------------------------------------------|

E|--5--4-5-4--0--2--0-2-0-------------------------------------|
B|-------------------------2--3-2-0-2-3-2-0-------------------|
G|------------------------------------------2-2---------------|
D|----------------------------------------------2---2---------|
A|------------------------------------------------4---0-------|
E|------------------------------------------------------------|


[x1]
E|--2-------------------------2--0---0--5--5--4-2-4-----------|
B|-----5-3-5-----3--2-0-2--5-------3--------------------------|
G|------------2-----------------------------------------------|
D|------------------------------------------------------------|
A|------------------------------------------------------------|
E|------------------------------------------------------------|


E|--5--4-5-4--5--7--5-4-5--9--9--7-5-4--5--7-7-5-4-2-0--------|
B|-----------------------------------------------------3-2-0--|
G|------------------------------------------------------------|
D|------------------------------------------------------------|
A|------------------------------------------------------------|
E|------------------------------------------------------------|


[x1]
E|--5--4-5-4--0--2--0-2-0-------------------------------------|
B|-------------------------2--3--2-3-2------------------------|
G|--------------------------------------2--4-2-1--------------|
D|-----------------------------------------------4-2-0--------|
A|-----------------------------------------------------4-2----|
E|------------------------------------------------------------|

E|--5--4-5-4--0--2--0-2-0-------------------------------------|
B|-------------------------2--3-2-0-2-3-2-0-------------------|
G|------------------------------------------2-2---------------|
D|----------------------------------------------2---2---------|
A|------------------------------------------------4---0-------|
E|------------------------------------------------------------|


[x1]
E|--2-------------------------2--0---0--5--5--4-2-4-----------|
B|-----5-3-5-----3--2-0-2--5-------3--------------------------|
G|------------2-----------------------------------------------|
D|------------------------------------------------------------|
A|------------------------------------------------------------|
E|------------------------------------------------------------|


E|--5--4-5-4--5--7--5-4-5--9--9--7-5-4--5--7-7-5-4-2-0--------|
B|-----------------------------------------------------3-2-0--|
G|------------------------------------------------------------|
D|------------------------------------------------------------|
A|------------------------------------------------------------|
E|------------------------------------------------------------|


[x2]
E|--5--4-5-4--0--2--0-2-0-------------------------------------|
B|-------------------------2--3--2-3-2------------------------|
G|--------------------------------------2--4-2-1--------------|
D|-----------------------------------------------4-2-0--------|
A|-----------------------------------------------------4-2----|
E|------------------------------------------------------------|

E|--5--4-5-4--0--2--0-2-0-------------------------------------|
B|-------------------------2--3-2-0-2-3-2-0-------------------|
G|------------------------------------------2-2---------------|
D|----------------------------------------------2---2---------|
A|------------------------------------------------4---0-------|
E|------------------------------------------------------------|

If there's any confusion, questions, or advice on how to 
improve it, please post a comment. Have fun playing, and 
please rate! -Rarrlow
Добавлено: 21.06.2014
Другие материалы по этой песне:
  • Аккорды и текст

Страница создана 21.06.2014
http://primanota.ru/misc-computer-games/yoshis-island-story-music-box-chords.htm
Привет, Гость.
Предлагаем пройти революционный курс по гитаре.
Подарок от PrimaNota.Ru, забирай!