PrimaNota.ru - самый крупный в мире бесплатный архив песенных текстов, аккордов, табулатур и нот


Misc Computer Games - Undertale - Waterfall - бас-таба, видео

Регистрация Запомнить меня
Войти через:  Facebook Google Twitter Vk Yandex Mail.ru

Misc Computer Games - Undertale - Waterfall - бас-таба, видео

Печатать
Просмотров: 346
Undertale - Waterfall

Tabbed by: Ashy (XxThreeCheersxX) 
E-mail: burdickash@gmail.com

Tuning: Standard

(This tab is a request)

I tabbed out both the intro melody and the bass piano 

INTRO MELODY
G|-------11--7--9------------------11--12--14--12--11------|
D|----9------------9------9-----9----------------------12--|
A|-7------------------10-----7-----------------------------|
E|---------------------------------------------------------|

BASSLINE (come in after the music briefly fades)
G|------------------------------------------------------------------------------------|
D|-2~--------4~------1--2~-------------------2~---------------------------------------|
A|--------------------------------3~------2------------3~--------2~--------3~------5--| x 2
E|------------------------------------------------------------------------------------|

(When the violin comes in; a bit harder to hear here)
G|-------------------------------------------------|
D|-------------------------------------------------|
A|-----2-----------5---2---3-----------5-------2---| x 4
E|-0-------3---5---------------3---5-------5-------|

Ending
G|---------------------------------------------------------------------------|
D|---------------------------------------------------------------------------|
A|-5-------2-----------------------------------------------------------------|
E|-----5-------------------1~------------0~----------------------------------|

| /  slide up
| \  slide down
| h  hammer-on
| p  pull-off
| ~  vibrato
| +  harmonic
| x  Mute note
===============================================================================
Добавлено: 05.03.2016
Другие материалы по этой песне:
  • Аккорды и текст

Страница создана 05.03.2016
http://primanota.ru/misc-computer-games/undertale-waterfall-chords.htm
Привет, Гость.
Предлагаем пройти революционный курс по гитаре.
Подарок от PrimaNota.Ru, забирай!