PrimaNota.ru - самый крупный в мире бесплатный архив песенных текстов, аккордов, табулатур и нот


Misc Computer Games - Undertale - Stronger Monsters - бас-таба, видео

Регистрация Запомнить меня
Войти через:  Facebook Google Twitter Vk Yandex Mail.ru

Misc Computer Games - Undertale - Stronger Monsters - бас-таба, видео

Печатать
Просмотров: 87
Undertale - Stronger Monsters

Tabbed by: Ashy (XxThreeCheersxX)
E-mail: burdickash@gmail.com

Tuning: Standard

Part I
G|---------------------------------|--------------------------------|
D|-----------------------------6-8-|------------------------------6-|
A|---------6-------8-----9---------|---------6---------9-8-6--8-8---|
E|-6-6-9-6---6-6-6---6-6---6-6-----|-6-6-9-6---6-6-6-9--------------|

G|---------------------------------|--------------------------------|
D|-----------------------------6-8-|--------------------------------|
A|---------6-------8-----9---------|---------6---------9-8-6--------|
E|-6-6-9-6---6-6-6---6-6---6-6-----|-6-6-9-6---6-6-6-9--------------|

Part II
G|---------------------------------|--------------------------------|
D|-----------------------------6-8-|------------------------------6-|
A|---------6-------8-----9---------|---------6---------9-8-6--8-8---|
E|-6-6-9-6---6-6-6---6-6---6-6-----|-6-6-9-6---6-6-6-9--------------|

G|---------------------------------|---------5------6---------------|
D|-----------------------------6-8-|-----8-6-------------6--8-------|
A|---------6-------8-----9---------|-9-9-------8-8---9-9------------|
E|-6-6-9-6---6-6-6---6-6---6-6-----|--------------------------------|

G|---------------------------------|--------------------------------|
D|-----------------------------6-8-|------------------------------6-|
A|---------6-------8-----9---------|---------6---------9-8-6--8-8---|
E|-6-6-9-6---6-6-6---6-6---6-6-----|-6-6-9-6---6-6-6-9--------------|

G|---------------------------------|---------5------6----5---------6-|
D|-----------------------------6-8-|-----8-6---------------6-----8---|
A|---------6-------8-----9---------|-9-9-------8-8---9-9-----8-8-----|
E|-6-6-9-6---6-6-6---6-6---6-6-----|---------------------------------|

Part III
G|------------------------------------------------------|
D|-----8-------6--6-6-6--6-6--6-6-6-6--6-6-6------------|
A|-9-9---9--9--------------------------------8-8-8-8----|
E|------------------------------------------------------|

Part IV
G|------------------------------------------------------------5-6-|
D|---------------------------------6-6-6-6-6-6-6-6-6-6-6----6-----|
A|-9-9-9-9-9-9-9-9-9-9-9-9-9-9-9-9--------------------------------|
E|----------------------------------------------------------------|

G|-------------------------------------------------6-8-6-5--6-5---|
D|---------------------------------6-6-6-6-6-6-6-6----------------|
A|-9-9-9-9-9-9-9-9-9-9-9-9-9-9-9-9--------------------------------|
E|----------------------------------------------------------------|

G|------------------------------------------------------------5-6-|
D|---------------------------------6-6-6-6-6-6-6-6-6-6-6----6-----|
A|-9-9-9-9-9-9-9-9-9-9-9-9-9-9-9-9--------------------------------|
E|----------------------------------------------------------------|

G|----------------------------------------------------------------|
D|---------------------------------6-6-6-6-6-6-6-6-9-9-9-9--------|
A|-9-9-9-9-9-9-9-9-9-9-9-9-9-9-9-9--------------------------------|
E|----------------------------------------------------------------|

Happy playing!

| /  slide up
| \  slide down
| h  hammer-on
| p  pull-off
| ~  vibrato
| +  harmonic
| x  Mute note
===============================================================================
Добавлено: 05.03.2016
Другие материалы по этой песне:
  • Аккорды и текст

Страница создана 05.03.2016
http://primanota.ru/misc-computer-games/undertale-stronger-monsters-chords.htm
Привет, Гость.
Предлагаем пройти революционный курс по гитаре.
Подарок от PrimaNota.Ru, забирай!