PrimaNota.ru - самый крупный в мире бесплатный архив песенных текстов, аккордов, табулатур и нот


Misc Computer Games - Undertale - Spider Dance - бас-таба, видео

Регистрация Запомнить меня
Войти через:  Facebook Google Twitter Vk Yandex Mail.ru

Misc Computer Games - Undertale - Spider Dance - бас-таба, видео

Печатать
Просмотров: 357
Undertale - Spider Dance

Tabbed by: Ashy (XxThreeCheersxX)
E-mail: burdickash@gmail.com

Tuning: Standard

No Bass until all the other instruments kick in

Part I
G|-----------------------------------------|
D|-----------------------------------------|
A|-----------1----1----4----4----3----3----| x 3
E|-1----1----------------------------------|

G|-----------------------------------------|
D|----------------------------------2--3---|
A|---------------------4----3----4---------|
E|-1----1----2----2------------------------|

Part II
G|------------------------------------------|----------------3-1-0------------------------------|
D|----------------------------2-3--2-----2--|-3--------------------3----------6-----------------|
A|-----------1----1--3--4---4---------3-----|-----------1------------4----4-4------3------3-----|
E|-1----1-----------------------------------|------1----------------------------------4-6----0--|

Part III
G|-----------------------------------------|
D|-----------------------------------------|
A|-----------1----1----4----4----3----3----|
E|-1----1----------------------------------|

G|-----------------------------------------|
D|----------------------------------2--3---|
A|---------------------4----3----4---------|
E|-1----1----2----2------------------------|

Happy playing!


| /  slide up
| \  slide down
| h  hammer-on
| p  pull-off
| ~  vibrato
| +  harmonic
| x  Mute note
===============================================================================
Добавлено: 05.03.2016
Другие материалы по этой песне:
  • Аккорды и текст

Страница создана 05.03.2016
http://primanota.ru/misc-computer-games/undertale-spider-dance-chords.htm
Привет, Гость.
Предлагаем пройти революционный курс по гитаре.
Подарок от PrimaNota.Ru, забирай!