PrimaNota.ru - самый крупный в мире бесплатный архив песенных текстов, аккордов, табулатур и нот


Misc Computer Games - Undertale - Spear Of Justice - бас-таба, видео

Регистрация Запомнить меня
Войти через:  Facebook Google Twitter Vk Yandex Mail.ru

Misc Computer Games - Undertale - Spear Of Justice - бас-таба, видео

Печатать
Просмотров: 401
Уроки эстрадного вокала в Санкт-Петербурге
Undertale - Spear of Justice

Tabbed by: Ashy (XxThreeCheersxX)
E-mail: burdickash@gmail.com

Tuning: Standard

I tabbed out both the rhythm and the main melody, which I'm assuming everyone is going to come here
for in the first place.  

The rhythm you need to play in Drop D, but the melody can be played in Standard Tuning.

Happy playing!

MELODY
G|-12----------10p9---------12----------10p9---------|
D|-------12---------10--12--------12---------10--12--|
A|---------------------------------------------------| 
E|---------------------------------------------------|
                                                             x 4
G|-12----------10p9-----------------------------10--|
D|-------12---------12--10--12--10----------12------|
A|----------------------------------13--12----------|
E|--------------------------------------------------|

Key Change (just up a half step)
G|-13----------11p10----------13----------11p10----------|
D|-------13-----------11--13--------13-----------11--13--|
A|-------------------------------------------------------|
E|-------------------------------------------------------|
                                                                  x 2
G|-13----------11p10------------------------------11--|
D|-------13-----------13--11--13--11----------13------|
A|------------------------------------14--13----------|
E|----------------------------------------------------|

Like I said, if this garners enough interest, I'll tab the rest of it out...


RHYTHM

Part I
G|-----------------------------------------|
D|-----------------------------------------|
A|-----------3x------------------3---------| x 2
D|-5x------------------5x-------------3----|

Part II
G|-------------------------------------------------------------------------|
D|-------------------------------------------------------------------------|
A|-------------------3---3--3-3--3--3--------------------3--3--3-----------| x 2
D|-5---5--5-5--5--5--------------------5---5--5-5--5--5-----------3--3--3--|

Part III (key change)
G|-------------------------------------------------------------------------|
D|-------------------------------------------------------------------------|
A|-------------------4---4--4-4--4--4--------------------4--4--4-----------| x 2
D|-6---6--6-6--6--6--------------------6---6--6-6--6--6-----------4--4--4--|

Part IV
G|---------------------------------------------------------------------------|
D|---------------------------------------------------------------------------|
A|-4--4--4-------------------------------------------------------------------|
D|----------4--4--4--2--2--2--1--1--1--2--2--2--1x---------------------------|

Part V (listen for when more instruments come in) x 2
G|-----------------------------|
D|-----------------------------|
A|-2-2--2-2--2-1---------------| x 4
D|-----------------------------|

Part VI
G|---------------------------------------------------------------------------|
D|---------------------------------------------------------------------------|
A|------------------------------4-------------------------------4------------|
D|-6----------4--------6-----------------6-------4-------6---------4--6------|

G|-------------------------------------------------------------------------|
D|-------------------------------------------------------------------------|
A|-------------------3---3--3-3--3--3--------------------3-----------------| x 2
D|-5---5--5-5--5--5--------------------5---5--5-5--5--5-----------3--------|

End On:
G|---------------------------------------------------------------------------|
D|---------------------------------------------------------------------------|
A|---------------------------------------------------------------------------|
D|-5-------------------------------------------------------------------------|


| /  slide up
| \  slide down
| h  hammer-on
| p  pull-off
| ~  vibrato
| +  harmonic
| x  Mute note
===============================================================================
Добавлено: 05.03.2016
Другие материалы по этой песне:
  • Аккорды и текст

Страница создана 05.03.2016
http://primanota.ru/misc-computer-games/undertale-spear-of-justice-chords.htm
Привет, Гость.
Предлагаем пройти революционный курс по гитаре.
Подарок от PrimaNota.Ru, забирай!