PrimaNota.ru - самый крупный в мире бесплатный архив песенных текстов, аккордов, табулатур и нот


Misc Computer Games - The Legend Of Zelda Twilight Princess - Hyrule Field - таба, видео

Регистрация Запомнить меня
Войти через:  Facebook Google Twitter Vk Yandex Mail.ru

Misc Computer Games - The Legend Of Zelda Twilight Princess - Hyrule Field - таба, видео

Печатать
Просмотров: 92
-------------------------------------------------------------------------------
        Hyrule Field - The Legend of Zelda: Twilight Princess
-------------------------------------------------------------------------------
Tabbed by: SOVASO

Tuning: Standard

Intro                                  Verse
                                        *   *  * * * *   *  * * *
e|------------------------------------|--------------------------------------|
B|------------------------------------|--------------------------------------|
G|-------------2brb-------------2brb--|--------------------------------------|
D|-4-------2h4--------4------2h4------|-------------------------------5-4-2--|
A|-4---2h4------------4--2h4----------|-2---2--2-2-2-2---2--2-2-2---2-------5|
E|-2------------------2---------------|--------------------------------------|

e|---------------------------------------------------------------------------|
B|---------------------------------------------------------------------------|
G|---------------------------------------------------------------------------|
D|---------------------5-4-2---2v-4h5-7--9vvvv-0-0-10-9-7-5-4vvvvvv-4-4-4p2vv|
A|-4vvv--2p0-4vvv--0-2-------5-----------------------------------------------|
E|---------------------------------------------------------------------------|

e|---------------------------------------------------------------------------|
B|---------------------------------------------------------------------------|
G|---------------------------------------------------------------------------|
D|---5-4-2------------------------5-4-2---2v-4h5-7--9vvvv-0-0-10-13-12-7vvvv-|
A|-2-------5--4vvv 2p0 4vvv-0--2---------------------------------------------|
E|---------------------------------------------------------------------------|
                                                               * *    * * *
e|---------------------------------------------------------------------------|
B|---------------------------------------------------------------------------|
G|---------------------------------------------------------------------------|
D|-9-12-11-7vvvvvv--7-7-7-7h9-10vvvvvv--9-9-9-9h11-12vvvvvvv----2-2---2-2-2--|
A|---------------------------------------------------------------------------|
E|---------------------------------------------------------------------------|
   * *   * * *  * *
e|---------------------------------------------------------------------------|
B|---------------------------------------------------------------------------|
G|---------------------------------------------------------------------------|
D|-2-2---2-2-2--2-2----------------------------------------------------------|
A|-----------------------5-3-1-3-5-7-8vvv--7-5-3-5-7-9-10vvv--9-7-5-7-9-11-12|
E|---------------------------------------------------------------------------|

e|---------------------------------------------------------------------------|
B|---------------------------------------------------------------------------|
G|---------------------------------------------------------------------------|
D|---------------------------------------------------------------------------|
A|-14-12h14p12---5-3-1-3-5-7-8vvv--7-5-3-5-7-9-10vvv--9-7-5-7-9-11-12-14-12--|
E|---------------------------------------------------------------------------|

e|---------------------------------------------------------------------------|
B|---------------------------------------------------------------------------|
G|---------------------------------------------------------------------------|
D|----------------------5-4------------------------7-6--------------------5-4|
A|-14----5-3-1-3-5-7--2-------4---7-5-3-5-7-9-10--4-----9-7-5-7-9-11-12-2----|
E|---------------------------------------------------------------------------|

e|---------------------------------------------------------------------------|
B|---------------------------------------------------------------------------|
G|---------------------------------------------------------------------------|
D|--------------5vvvvvvvvvvvvvvvvvvvv----------------------------------------|
A|-4-2-2p0h2p0---------------------------------------------------------------|
E|---------------------------------------------------------------------------|
Then You repeat from the Verse.


Legend
************************************

| /   slide up
| \   slide down
| h   hammer-on
| p   pull-off
| v   vibrato
| +   harmonic
| x   Mute note
| b   Bend
| pb  Pre-bend
| br  Bend release
| pbr Pre-bend release
| brb Bend release bend
| *   Palm mute
************************************



Q & A

Q.Who tabbed this?
A. I Am SOVASO. The name is Latin For "Sound Vessel"

Q.How long have you been playing?
A. Four Years.

Q. Do you like Zelda?
A. I am a hardcore Zelda fan. This Song wasn't on Ultimate Guitar And I think its one of 
the best in the series so i wanted to tab it.

Q. Where can I reach you?
A. Post your question on my profile page. I'd be happy to get back to you ASAP
Добавлено: 19.09.2013
Другие материалы по этой песне:
  • Аккорды и текст

Страница создана 19.09.2013
http://primanota.ru/misc-computer-games/the-legend-of-zelda-twilight-princess-hyrule-field-chords.htm
Привет, Гость.
Предлагаем пройти революционный курс по гитаре.
Подарок от PrimaNota.Ru, забирай!