PrimaNota.ru - самый крупный в мире бесплатный архив песенных текстов, аккордов, табулатур и нот


Misc Computer Games - The Elder Scrolls Iii Morrowind - Call Of Magic - таба, видео

Регистрация Запомнить меня
Войти через:  Facebook Google Twitter Vk Yandex Mail.ru

Misc Computer Games - The Elder Scrolls Iii Morrowind - Call Of Magic - таба, видео

Печатать
Просмотров: 586
~The Elder Scrolls III: Morrowind~ Call of Magic (Main Theme)

Composed by: Jeremy Soule
Arranged by: kenor

Rhytm: 3/4 metrum
Tab is written in a-minor, to play it in the original c-minor, just put the capo 
on the third fret.

     E  E     E  E  E  E  E  E     E  E  E  E  E  E             
E||--------|--------------------|--0-----------0--3--|
B||-----0--|--1-----------1--3--|--------1-----1-----|
G||--2-----|--------2-----2--0--|-----0-----0--------|
D||--------|-----2-----2--------|--------------------|
A||--------|--0-----------------|--3-----------------|
E||--------|--------------------|--------------------|


     E  E  E  S S E  E     E  E  E  E  E  E     E  E  E  E  E  E
E||-----------0---------|--------------------|--------------------|
B||--3----------3-1--0--|-----------------0--|--1-----------1--3--|
G||--------0------------|--2-----------2-----|--------2-----2--0--|
D||-----0---------------|--------3-----3-----|-----2-----2--------|
A||---------------------|-----3-----3--------|--0-----------------|
E||--3------------------|--1-----------------|--------------------|

                                      ^
     E  E  E  E  E  E     E  E  E  E  E.  S    E  E  E  E  E.  S
E||--0-----------0--3--|--5---------------7-|--5-----------5---7-|
B||--------1-----1-----|--6-----6-----8-----|--------6-----6-----|
G||-----0-----0--------|-----5-----5--0-----|-----7-----7--------|
D||--------------------|--------------0-----|--0-----------------|
A||--3-----------------|--0-----------------|--------------------|
E||--------------------|--------------7-----|--------------------|

                                                  x     x
     E  E  E  E  E  E     E  E  E  E  E  E     E  E  E  E  E  E
E||--8-----7-----5-----|--3-----1-----0-----|--------0--------0--|
B||--5-----5-----5-----|--1-----1-----1-----|--3-----------1-----|
G||-----5-----5-----5--|-----0-----0-----0--|-----2-----2--2-----|
D||--------------------|--------------------|--3-----------3-----|
A||--0-----------------|--3-----------------|--0-----------------|
E||--------------------|--------------------|--------------------|

     ^                    ^  x  x  x  x  x     ^  x  x  x
     E  E  E  E  E  E     E  E  E  E  E  E     E  E  E  E  E  E
E||--------------------|--------------------|--0-----------------|
B||--3-----------1--0--|-----------0-----0--|--0--0-----------0--|
G||--0-----0-----0-----|--2-----2-----2-----|--2-----2-----2-----|
D||--0--0-----0--------|--2--2--------------|-----------2--------|
A||--------------------|--0-----------------|--0-----------------|
E||--3-----------------|--------------------|--------------------|


     E  E  E  E  E  E     E  E  E  E  E  E     E  E  E  S S E  E
E||--------------------|--0-----------0--3--|-----------0---------|
B||--1-----------1--3--|--------1-----1-----|--3----------3-1--0--|
G||--------2-----2--0--|-----0-----0--------|--0-----0------------|
D||-----2-----2--------|--------------------|-----0---------------|
A||--0-----------------|--3-----------------|---------------------|
E||--------------------|--------------------|--3------------------|

        x  x  x
     E  E  E  E  E  E     E  E  E  E  E  E     E  E  E  E  E  E
E||--------------------|--------------------|--0-----------0--3--|
B||--------3--------0--|--1-----------1--3--|--------3-----1-----|
G||--2-----------2-----|--------2-----2--0--|-----0-----0--------|
D||--4--4-----4--------|-----2-----2--------|--------------------|
A||--5-----------------|--0-----------------|--3-----------------|
E||--------------------|--------------------|--------------------|

                 ^
     E  E  E  E  E.  S    E  E  E  E  E.  S     E  E  E  E  E  E
E||--5---------------7-|--5-----------5---7-|--8-----7-----5-----|
B||--6-----6-----8-----|--------6-----6-----|--5-----5-----5-----|
G||-----5-----5--0-----|-----7-----7--------|-----5-----5-----5--|
D||--------------0-----|--0-----------------|--------------------|
A||--0-----------------|--------------------|--0-----------------|
E||--------------7-----|--------------------|--------------------|

                             x     x           ^
     E  E  E  E  E  E     E  E  E  E  E  E     E  E  E  E  E  E
E||--3-----1-----0-----|--------0--------0--|--------------------|
B||--1-----1-----1-----|--3-----------1-----|--3-----------1--0--|
G||-----0-----0-----0--|-----2-----2--2-----|--0-----------0-----|
D||--------------------|--3-----------3-----|--0-----0-----------|
A||--3-----------------|--0-----------------|-----2-----2--------|
E||--------------------|--------------------|--3-----------------|

     ^  x  x  x  x  x     ^  x  x  x           ^           ^
     E  E  E  E  E  E     E  E  E  E  E  E     E  E  E  E  E  E
E||--------------------|--0-----------------|--------------------|
B||-----------3--------|--3--3-----------0--|--1-----------1--3--|
G||--2-----2-----2-----|--2-----2-----2-----|--2-----------2-----|
D||--4--4-----------4--|-----------4--------|--3-----3-----3-----|
A||--5-----------------|--5-----------------|-----3-----3--------|
E||--------------------|--------------------|--1-----------------|

     ^           ^        ^                        x  x  x
     E  E  E  E  E  E     E  E  E  S S E  E     E  E  E  E  E  E
E||--0-----------0--3--|-----------0---------|--------------------|
B||--1-----------1-----|--3----------3-------|--------3--------0--|
G||--4-----2-----2-----|--4-----0------5--4--|--2-----------2-----|
D||-----2-----2--------|--0--0---------------|--4--4-----4--------|
A||--0-----------------|---------------------|--5-----------------|
E||--------------------|--3------------------|--------------------|

                                                           ^
     E  E  E  E  E  E     E  E  E  E  E  E     E  E  E  E  E.  S
E||--------------------|--0-----------0--3--|--5---------------7-|
B||--1-----------1--3--|--------1-----1-----|--6-----6-----8-----|
G||--------2-----2--0--|-----0-----0--------|-----5-----5--0-----|
D||-----2-----2--------|--------------------|--------------0-----|
A||--0-----------------|--3-----------------|--0-----------------|
E||--------------------|--------------------|--------------7-----|


     E  E  E  E  E.  S    E  E  E  E  E  E     E  E  E     E  E  E               
E||--5-----------5---7-|--8-----7-----5-----|--3-----1h3P1----0-----|
B||--------6-----6-----|--5-----5-----5-----|--1-----1--------1-----|
G||-----7-----7--------|-----5-----5-----5--|-----0--------0-----0--|
D||--0-----------------|--------------------|-----------------------|
A||--------------------|--0-----------------|--3--------------------|
E||--------------------|--------------------|-----------------------|

     ^  x     x           ^                    ^  x  x  x  x  x
     E  E  E  E  E  E     E  E  E  E  E  E     E  E  E  E  E  E  
E||--------0--------0--|--------------------|--------------------|
B||--3-----------1-----|--3-----------1--0--|--------------------|
G||--2--2-----2--2-----|--4-----------0-----|--2--------2--------|
D||--3-----------3-----|--0-----0-----------|--3-----3-----3-----|
A||--------------------|-----2-----2--------|--5--5-----------5--|
E||--1-----------------|--3-----------------|--------------------|

     ^  x  x  x              x  x  x  x  x     ^
     E  E  E  E  E  E     E  E  E  E  E  E     H.
E||--------------------|--------------0-----|--5--||
B||--0-----------1--0--|-----------1-----0--|-----||
G||--2--2--------------|--2-----2-----------|--5--||
D||--3-----3-----------|--2--2--------------|-----||
A||--5--------5--------|--0-----------------|--0--||
E||--------------------|--------------------|-----||


Legend:
-------

H - half
Q - quarter
E - 8th
S - 16th
. - dotted
h - hammer-on
p - pull-off
^ - strum the chord (brush up)
x - not the melody, play quieter
Добавлено: 17.11.2013
Другие материалы по этой песне:
  • Аккорды и текст

Страница создана 17.11.2013
http://primanota.ru/misc-computer-games/the-elder-scrolls-iii-morrowind-call-of-magic-chords.htm
Привет, Гость.
Предлагаем пройти революционный курс по гитаре.
Подарок от PrimaNota.Ru, забирай!