PrimaNota.ru - самый крупный в мире бесплатный архив песенных текстов, аккордов, табулатур и нот


Misc Computer Games - Tetris Music c - аккорды и текст, таба, видео

Регистрация Запомнить меня
Войти через:  Facebook Google Twitter Vk Yandex Mail.ru

Misc Computer Games - Tetris Music c - аккорды и текст, таба, видео

Печатать
Просмотров: 163
Tetris Music c
Misc Computer Games
		   t. See http://www..net/faq/ for more information.                     #
#-----------------------------------------------------------------------------#


This is my first Nintendo tab. It's one of my favortie pieces of video =
game music, and I think it plays beautifully
acoustic/clean electric. I've done tabs of a few other songs so far, and =
have been meaning to start a website about the
whole mess, but it seems extraordinary laziness prevails in these =
situations. Anyone interested in video game music (mainly
old Nintendo) is welcome to contact me [KurtDude87@prodigy.net]. I'm =
speculating forming a band that does a lot of video
game covers in sort of an alternative/hard rock style in addition to =
original stuff...Well, anyway, enjoy!
Game: Tetris [Nintendo]
Song: Music C
Tempo: 150

Notes: Lead should be finger-picked in a clean tone with some =
delay/doubling. Bass should be played staccato.
** = Repeat from beginning
Guitar [Lead]
E :------------0---|----------------|----------------|
B :--------0-------|4---2---4---0---|------------0---|
G :----2-----------|----------------|--------2-------|
D :--4---4---4---4-|--4---4---4---4-|--4---4---4---4-|
A :----------------|----------------|----------------|
E :----------------|----------------|----------------|
Bass
G :----------------|----------------|----------------|
D :----------------|----------------|----------------|
A :2-----2-2-------|--------2-------|2-------2-------|
E :------------2---|--2-2-------2---|----2-------2---|

Guitar
E :----------------|----------------|----------------|
B :--------0---2---|3---2---0-------|2-----------2---|
G :----2-----------|------------2---|--------2-------|
D :--2---2---2---2-|--2---2---2---2-|--2---2---2---2-|
A :----------------|----------------|----------------|
E :----------------|----------------|----------------|
Bass
G :----------------|----------------|----------------|
D :----------------|----------------|----------------|
A :0-----0-0-------|--------0-------|0-------0-------|
E :------------0---|--0-0-------0---|----0-------0---|

Guitar
E :------------0---|----------------|----------------|
B :--------0-------|4---2---4---0---|------------0---|
G :----2-----------|----------------|--------2-------|
D :--4---4---4---4-|--4---4---4---4-|--4---4---4---4-|
A :----------------|----------------|----------------|
E :----------------|----------------|----------------|
Bass
G :----------------|----------------|----------------|
D :----------------|----------------|----------------|
A :2-----------2---|----2-------2---|----2-------2---|
E :--------2-------|2-------2-------|2-------2-------|

Guitar
E :------------0---|----------------|----------------|
B :--------0-------|4---2-------2---|0---------------|
G :----2-----------|--------2-------|----------------|
D :--4---4---4---4-|--4---4---4---4-|--4---4-4-------|
A :----------------|----------------|----------------|
E :----------------|----------------|----------------|
Bass
G :----------------|----------------|----------------|
D :----------------|----------------|----------------|
A :0-----0-0-------|--------0-------|0-------0-------|
E :------------0---|--0-0-------0---|----0-------0---|

Guitar                                               **
E :2---------0-2---|----------2-5-4-|2-0-2-----------||
B :------0-2-------|----------------|----------------||
G :----2-----------|----------------|----------------||
D :--4-------------|--------4-------|------------4---||
A :----------------|----------------|----------------||
E :----------------|----------------|----------------||
Bass                                                 **
G :----------------|----------------|----------------||
D :----------------|----------------|----------------||
A :2-------2---0---|----0---2-------|2---0-------0---||
E :----2-----------|0-----------2---|--------0-------||     
Добавлено: 11.06.2013
Другие материалы по этой песне:
  • Аккорды и текст

Страница создана 21.03.2012
http://primanota.ru/misc-computer-games/tetris-music-c-chords.htm
Привет, Гость.
Предлагаем пройти революционный курс по гитаре.
Подарок от PrimaNota.Ru, забирай!