PrimaNota.ru - самый крупный в мире бесплатный архив песенных текстов, аккордов, табулатур и нот


Misc Computer Games - Tenchu - Training Music - таба

Регистрация Запомнить меня
Войти через:  Facebook Google Twitter Vk Yandex Mail.ru

Misc Computer Games - Tenchu - Training Music - таба

Печатать
Просмотров: 102
--------------------------------------------------------------------
Title: Training Music
Game: Tenchu 1 (PS1)
Tabbed by: Ifyhard; ifyhard2@yahoo.com
--------------------------------------------------------------------
*Under my tab, I placed Sasa Nikolic's interpretation of how the song's supposed to go. 
I haven't had the time to check it, since it looks pretty much the same as mine, but... 
its there. It's most likely more accurate than mine, since two ears are better than one.

*Any comments, suggestion, tips on how to tab properly :), or anything really (except 
feel free to e-mail me.

*Oh, and I think I saw a tab of this, but its pretty vague…hmmm.

- Again, old layout...bear with it.

Enjoy!

Standard tuning: (low to high) EADGBe

1st part: This starts at 00:21 and ends at 00:40
=========
You'll just have to “feel” this part, since it's pretty hard to
write continuous picking.

*repeat= [ ]; lots of times.
|-------------------------0-----------0---------------------------|
|-----3-------3-------3-----3---3[--3]--3---3-3-3-3-3-3-3h5p3--3--|
|---5---5---5---5---5---5-----5—-[-5-]----5------------------5----|
|-5-------5-------5--------------[5--]----------------------------|
|-----------------------------------------------------------------|
|-----------------------------------------------------------------|
*Just use these certain patterns throughout the allotted time (this
is not exactly how it goes, mind you). Forgive me, but its just too tiring to write the 
intro. :(


2nd part: This starts at 00:42 and ends at 01:00
=========
*harmonics= ( )
|------5-5h7~---(7)~----------------------------------------------|
|-5/7-----------(7)~----7/9-7~-h9p7-5~--9/7-5-7~------------------|
|---------------(7)~----------------------------------------------|
|---------------(7)~----------------------------------------------|
|-----------------------------------------------------------------|
|-----------------------------------------------------------------|

|-----------------------------------------------------------------|
|-----3-6p3-3-5—6p3-3-5~----5b6r5-5-6-5--3------------------------|
|-2/4--------------------------------------2-2/4-4~---4h5p4p2-4~--|
|-----------------------------------------------------------------|
|-----------------------------------------------------------------|
|-----------------------------------------------------------------|


3rd part: This starts at 01:01 and ends at 01:18
=========
|------5—10h11-10—10h11-10---10b11--10--11--10--------------------|
|-5h7------------------------------------------12-10-10h12-10-----|
|-------------------------------------------------------------11~-|
|-----------------------------------------------------------------|
|-----------------------------------------------------------------|
|-----------------------------------------------------------------|

|--------------------------------------------5--------------------|
|-12p10---------5b6-r5--3-5-5h6p5p3-5--3-------5h6p5-3-5h6p5-3----|
|-------11~------------------------------2------------------------|
|-----------------------------------------------------------------|
|-----------------------------------------------------------------|
|-----------------------------------------------------------------|

|-----------(7)-----------------------------------------------------|
|-3---------(7)-----------------------------------------------------|
|---2—2/4-4-(7)-----------------------------------------------------|
|-----------(7)-----------------------------------------------------|
|-------------------------------------------------------------------|
|-------------------------------------------------------------------|


4th part: This starts at 01:42 and ends at 02:02
=========
Again, “feel” this part. This time I'll just write the broken
Chord used, hahaha! : )

|-8---|
|-8---|
|-10--|
|-10--|
|-----|
|-----|


Final part: This starts at 02:03 and ends at 02:46
=========
*My fave part.
|------6-6h8~---10b11-10—-8-10-8h10p8-----------------------------|
|-6/8---------------------------------11-8-11-8h11p8--------------|
|----------------------------------------------------10-10/12-10--|
|-----------------------------------------------------------------|
|-----------------------------------------------------------------|
|-----------------------------------------------------------------|

|-------------------------------------------------6---8---11------|
|----------------4-6b7-6-4-6/8-6p4-6~--b7r6-4-6/8---6---6----8----|
|-8-10~/12~-----5-------------------------------------------------|
|--------------5--------------------------------------------------|
|-----------------------------------------------------------------|
|-----------------------------------------------------------------|

|-11b12r11--8-------------------------------6-8-10-10~-8-10-10~---|
|-------------11-8/6-6/8~-8/6-4-6/4-1~----8-----------------------|
|-----------------------------------------------------------------|
|-----------------------------------------------------------------|
|-----------------------------------------------------------------|
|-----------------------------------------------------------------|

|-10b11-b11r10-8--------------------------------------------------|
|----------------11-8-8/12-12-16—9/7/5/7/5-5-----4-6-4-6/8-6p4-6--|
|----------------------------------------------5------------------|
|-----------------------------------------------------------------|
|-----------------------------------------------------------------|
|-----------------------------------------------------------------|

|-----------------------------------------------------------------|
|---4-6/8-6/4-6~----11-8--7-6-4-6h7p6p4---------------------------|
|-5-------------------------------------5~------------------------|
|-----------------------------------------6/4~~/2-----------------|
|-------------------------------------------------4---------------|
|-----------------------------------------------------------------|

That's it!

=============================================================================
Posted: 07 June 2006 at 12:34 P.M. (+8 zone)
Sasa Nikolic's version:
=============================================================================

1st part: This starts at 00:21 and ends at 00:40
=========


*repeat= [ ]; lots of times.
|-------------------------0-----------0---------------------------|
|-----3-------3-------3-----3---3[--3]--3---3-3-3-3-3-3-3h5p3--3--|
|---5---5---5---5---5---5-----5—-[-5-]----5------------------5----|
|-5-------5-------5--------------[5--]----------------------------|
|-----------------------------------------------------------------|
|-----------------------------------------------------------------|


2nd part: This starts at 00:42 and ends at 01:00
=========
*harmonics= ( )
|------5-5h7~------(7)~-------------------------------------------|
|-5/7-------------(7)~----7/9--7~h9p7p5-7~-9p7p5-7~---------------|
|----------------(7)~---------------------------------------------|
|---------------(7)~----------------------------------------------|
|-----------------------------------------------------------------|
|-----------------------------------------------------------------|

|-----------------------------------------------------------------|
|-----3-6p5p3-5—6p5p3-5-6~--5b6r5-5-6-5--3------------------------|
|-2/4--------------------------------------2-2/4-4~---4h5p4p2-4~--|
|-----------------------------------------------------------------|
|-----------------------------------------------------------------|
|-----------------------------------------------------------------|

|------5—9h10p9p7—9-9h10p9p7—9-9b10---9-10-9---9------------------|
|-5h7-------------------------------------------10----10h12-10----|
|-------------------------------------------------------------11~-|
|-----------------------------------------------------------------|
|-----------------------------------------------------------------|
|-----------------------------------------------------------------|

|--------------------------------------4-0------4-----------------|
|-12p10p8\7-------5b6r5--3-5-5b6r5p3-5----0-------5h6p5p3-5h6p5p3-|
|------------------------------------------0----------------------|
|-------------------------------------------2---------------------|
|--------------------------------------------2--------------------|
|---------------------------------------------0-------------------|

|-----------(7)-----------------------------------------------------|
|-3---------(7)-----------------------------------------------------|
|---2—2/4-4-(7)-----------------------------------------------------|
|-----------(7)-----------------------------------------------------|
|-------------------------------------------------------------------|
|-------------------------------------------------------------------|


3rd part: This starts at 01:42 and ends at 02:02
=========

|-8---|
|-8---|
|-10--|
|-10--|
|-----|
|-----|


4th Part:
=========

|----6-6h8~---10b11-8---8-10-8h10p8\6-----------------------------|
|6/8----------------------------------8-11-8h11p8\6---------------|
|---------------------------------------------------10-10/12\10p8-|
|-----------------------------------------------------------------|
|-----------------------------------------------------------------|
|-----------------------------------------------------------------|

|-------------------------------------------------6---8---10---11-|
|----------------4-6b7-6-4-6/8-6p4-6~--b7r6-4-6/8---8---8----8----|
|-8-10~/12~-----5-------------------------------------------------|
|--------------5--------------------------------------------------|
|-----------------------------------------------------------------|
|-----------------------------------------------------------------|

|-(11)b12---8-------------------------------6-8~h10-10~---10-10~--|
|-------------11-8/6-6\4/6p4\1-1-1~-------8-------------11--------|
|-----------------------------------------------------------------|
|-----------------------------------------------------------------|
|-----------------------------------------------------------------|
|-----------------------------------------------------------------|

|-10b11-b11r10-8--------------------------------------------------|
|----------------11--8~/13-13--—-4/6\4/6-4----(4)-6-(4)-6/8-6p4-6-|
|-------------------------------------------5---------------------|
|-----------------------------------------------------------------|
|-----------------------------------------------------------------|
|-----------------------------------------------------------------|

|-----------------------------------------------------------------|
|---4-(6)/8-6\4-6-6~----11-8--7-4h6~p4\1-1-1~---------------------|
|-5---------------------------------------------------------------|
|--------------------------------------------1/3~-3p1-------------|
|-----------------------------------------------------3~----------|
|-----------------------------------------------------------------|
Добавлено: 09.06.2012
Другие материалы по этой песне:
  • Аккорды и текст

Страница создана 09.06.2012
http://primanota.ru/misc-computer-games/tenchu-training-music-chords.htm
Привет, Гость.
Предлагаем пройти революционный курс по гитаре.
Подарок от PrimaNota.Ru, забирай!