PrimaNota.ru - самый крупный в мире бесплатный архив песенных текстов, аккордов, табулатур и нот


Misc Computer Games - Team Fortress 2 Theme - таба, бас-таба, видео

Регистрация Запомнить меня
Войти через:  Facebook Google Twitter Vk Yandex Mail.ru

Misc Computer Games - Team Fortress 2 Theme - таба, бас-таба, видео

Печатать
Просмотров: 209
Gtr I (E A D G B E) - 'Clean 1'
Gtr II (E A D G B E) - 'Clean 2'
Gtr III (E A D G B E) - 'Piano'

  Q=130
 4/4
  Gtr I
  E S S E E S S E E S S   E E S S E E E E E
|-----------------------|-------------------|
|-----------------------|-------------------|
|-----------------------|-------------------|
|-----------------------|-------------------|
|-----------------------|-------------------|
|-5S7-7-7-5S7-7-7-5S7-7-|-7-5S7-7-7-7-6-5-3-|
|
| Gtr II
| W                       W
|-----------------------|-------------------|
|-----------------------|-------------------|
|-----------------------|-------------------|
|-----------------------|-------------------|
|-----------------------|-------------------|
|-----------------------|-------------------|


  E E E E E E E E   E E E E E E E E
|-----------------|------------------|
|-----------------|------------------|
|-----------------|------------------|
|-----------------|------------------|
|-----------------|------------------|
|-0-0-0-3-3-3-0-0-|-0-7-7-7-5-5S6S7--|
|
| E E E E E E E E   E E E E E E E E
|-----------------|------------------|
|-----------------|------------------|
|-9-9-9-9-9-9-9-8-|-8-8-8-8-8-8-8-8--|
|-----------------|------------------|
|-----------------|------------------|
|-----------------|------------------|


  E E E E E E E  E    E  E     E     E     E     E     E     E
|------------------|----------------------------------------------|
|------------------|----------------------------------------------|
|------------------|----------------------------------------------|
|------------------|----------------------------------------------|
|------------------|----------------------------------------------|
|-0-0-0-3-3-3-0--0-|--0--7-----7-----7-----6-----6-----5-----5----|
|
| E E E E E E E  E    E  E     E     E     E     E     E     E
|------------------|----------------------------------------------|
|------------------|----------------------------------------------|
|-9-9-9-9-9-9-9-11-|-11-11b12-11b12-11b12-11b12-11b12-11b12-11b12-|
|------------------|----------------------------------------------|
|------------------|----------------------------------------------|
|------------------|----------------------------------------------|


  E E E E E E E E   E E E E E E E E
|-----------------|-----------------|
|-----------------|-----------------|
|-----------------|-----------------|
|-----------------|-----------------|
|-----------------|-----------------|
|-0-0-0-3-3-3-0-0-|-0-7-7-7-5-5S6S7-|
|
| E E E E E E E E   E E E E E E E E
|-----------------|-----------------|
|-----------------|-----------------|
|-9-9-9-9-9-9-9-8-|-8-8-8-8-8-8-8-8-|
|-----------------|-----------------|
|-----------------|-----------------|
|-----------------|-----------------|


  E E E E E E E  E    E  E     E     E     E     E     E     E
|------------------|----------------------------------------------|
|------------------|----------------------------------------------|
|------------------|----------------------------------------------|
|------------------|----------------------------------------------|
|------------------|----------------------------------------------|
|-0-0-0-3-3-3-0--0-|--0--0-----1-----1-----2-----2-----3-----3----|
|
| E E E E E E E  E    E  E     E     E     E     E     E     E
|------------------|----------------------------------------------|
|------------------|----------------------------------------------|
|-9-9-9-9-9-9-9-11-|-11-11b12-11b12-11b12-11b12-11b12-11b12-11b12-|
|------------------|----------------------------------------------|
|------------------|----------------------------------------------|
|------------------|----------------------------------------------|


  E E E E E E E E   E E E E E E E E
|-----------------|-----------------|
|-----------------|-----------------|
|-----------------|-----------------|
|-----------------|-----------------|
|-----------------|-----------------|
|-0-0-0-3-3-3-0-0-|-0-7-7-7-5-5S6S7-|
|
| E E E E E E E E   E E E E E E E E
|-----------------|-----------------|
|-----------------|-----------------|
|-9-9-9-9-9-9-9-8-|-8-8-8-8-8-8-8-8-|
|-----------------|-----------------|
|-----------------|-----------------|
|-----------------|-----------------|


  E E E E E E E  E    E  E     E     E     E     E     E     E
|------------------|----------------------------------------------|
|------------------|----------------------------------------------|
|------------------|----------------------------------------------|
|------------------|----------------------------------------------|
|------------------|----------------------------------------------|
|-0-0-0-3-3-3-0--0-|--0--7-----7-----7-----6-----6-----5-----5----|
|
| E E E E E E E  E    E  E     E     E     E     E     E     E
|------------------|----------------------------------------------|
|------------------|----------------------------------------------|
|-9-9-9-9-9-9-9-11-|-11-11b12-11b12-11b12-11b12-11b12-11b12-11b12-|
|------------------|----------------------------------------------|
|------------------|----------------------------------------------|
|------------------|----------------------------------------------|


  E E E E E E E E   E E E E E E E E
|-----------------|-----------------|
|-----------------|-----------------|
|-----------------|-----------------|
|-----------------|-----------------|
|-----------------|-----------------|
|-0-0-0-3-3-3-0-0-|-0-7-7-7-5-5S6S7-|
|
| E E E E E E E E   E E E E E E E E
|-----------------|-----------------|
|-----------------|-----------------|
|-9-9-9-9-9-9-9-8-|-8-8-8-8-8-8-8-8-|
|-----------------|-----------------|
|-----------------|-----------------|
|-----------------|-----------------|


  E E E E E E E  E    E  E     E     E     E     E     E     E
|------------------|----------------------------------------------|
|------------------|----------------------------------------------|
|------------------|----------------------------------------------|
|------------------|----------------------------------------------|
|------------------|----------------------------------------------|
|-0-0-0-3-3-3-0--0-|--0--0-----1-----1-----2-----2-----3-----3----|
|
| E E E E E E E  E    E  E     E     E     E     E     E     E
|------------------|----------------------------------------------|
|------------------|----------------------------------------------|
|-9-9-9-9-9-9-9-11-|-11-11b12-11b12-11b12-11b12-11b12-11b12-11b12-|
|------------------|----------------------------------------------|
|------------------|----------------------------------------------|
|------------------|----------------------------------------------|


  Q=110
  Q            Q           H
|----------------------------------------------------|
|----------------------------------------------------|
|----------------------------------------------------|
|----------------------------------------------------|
|----------------------------------------------------|
|-3\-------------------------------------------------|
|
| Gtr III
| |----------------------3-----------------------|
| S  S S S S S S S S S S S S S S S S S S S S S S S
|-7--6-8-7-6-8-7-6-8-7-6-8-7-6-8-7-6-8-7-6-8-7-6-8---|
|----------------------------------------------------|
|----------------------------------------------------|
|----------------------------------------------------|
|----------------------------------------------------|
|----------------------------------------------------|


  Q=130
  Gtr II
  W          W                       W                   E E E E E E E E
|----------|-----------------------|-------------------|-----------------|
|----------|-----------------------|-------------------|-----------------|
|----------|-----------------------|-------------------|-9-9-9-9-9-9-9-8-|
|----------|-----------------------|-------------------|-----------------|
|----------|-----------------------|-------------------|-----------------|
|----------|-----------------------|-------------------|-----------------|
|
|            Gtr I
| W          E S S E E S S E E S S   E E S S E E E E E   E E E E E E E E
|-7--------|-----------------------|-------------------|-----------------|
|----------|-----------------------|-------------------|-----------------|
|----------|-----------------------|-------------------|-----------------|
|----------|-----------------------|-------------------|-----------------|
|----------|-----------------------|-------------------|-----------------|
|----------|-5S7-7-7-5S7-7-7-5S7-7-|-7-5S7-7-7-7-6-5-3-|-0-0-0-3-3-3-0-0-|


  Gtr I
  E E E E E E E E   E E E E E E E  E
|-----------------|------------------|
|-----------------|------------------|
|-----------------|------------------|
|-----------------|------------------|
|-----------------|------------------|
|-0-7-7-7-5-5S6S7-|-0-0-0-3-3-3-0--0-|
|
| Gtr II
| E E E E E E E E   E E E E E E E  E
|-----------------|------------------|
|-----------------|------------------|
|-8-8-8-8-8-8-8-8-|-9-9-9-9-9-9-9-11-|
|-----------------|------------------|
|-----------------|------------------|
|-----------------|------------------|


   E  E     E     E     E     E     E     E      E E E E E E E E
|----------------------------------------------|-----------------|
|----------------------------------------------|-----------------|
|----------------------------------------------|-----------------|
|----------------------------------------------|-----------------|
|----------------------------------------------|-----------------|
|--0--7-----7-----7-----6-----6-----5-----5----|-0-0-0-3-3-3-0-0-|
|
|  E  E     E     E     E     E     E     E      E E E E E E E E
|----------------------------------------------|-----------------|
|----------------------------------------------|-----------------|
|-11-11b12-11b12-11b12-11b12-11b12-11b12-11b12-|-9-9-9-9-9-9-9-8-|
|----------------------------------------------|-----------------|
|----------------------------------------------|-----------------|
|----------------------------------------------|-----------------|


                                       Q=80       Q=130
                                                 2/4
  E E E E E E E E   E E E E E E E  E   W          W
|-----------------|------------------|----------|------|
|-----------------|------------------|----------|------|
|-----------------|------------------|----------|------|
|-----------------|------------------|----------|------|
|-----------------|------------------|----------|------|
|-0-7-7-7-5-5S6S7-|-0-0-0-3-3-3-0--0-|----------|------|
|
| E E E E E E E E   E E E E E E E  E   W          W
|-----------------|------------------|----------|------|
|-----------------|------------------|----------|------|
|-8-8-8-8-8-8-8-8-|-9-9-9-9-9-9-9-11-|----------|------|
|-----------------|------------------|----------|------|
|-----------------|------------------|----------|------|
|-----------------|------------------|----------|------|


 4/4
  E S S E E S S E E S S   E E S S E E E E E   Q  Q  H
|-----------------------|-------------------|------------*|
|-----------------------|-------------------|------------*|
|-----------------------|-------------------|------------*|
|-----------------------|-------------------|------------*|
|-----------------------|-------------------|------------*|
|-5S7-7-7-5S7-7-7-5S7-7-|-7-5S7-7-7-7-6-5-3-|-0----------*|



Duration Legend
---------------
W - whole; H - half; Q - quarter; E - 8th; S - 16th; T - 32nd; X - 64th; a - acciaccatura
+ - note tied to previous; . - note dotted; .. - note double dotted
Uncapitalized letters represent notes that are staccato (1/2 duration)
Irregular groupings are notated above the duration line
Duration letters will always appear directly above the note/fret number it represents the
duration for.  Duration letters with no fret number below them represent rests.  Multi-
bar rests are notated in the form Wxn, where n is the number of bars to rest for.  Low
melody durations appear below the staff

Tablature Legend
----------------
 h   - hammer-on
 p   - pull-off
 b   - bend
 pb  - pre-bend
 r   - bend release (if no number after the r, then release immediately)
 /\  - slide into or out of (from/to "nowhere")
 s   - legato slide
 S   - shift slide
 - natural harmonic
[n]  - artificial harmonic
n(n) - tapped harmonic
 ~   - vibrato
 tr  - trill
 T   - tap
 TP  - trem. picking
 PM  - palm muting
\n/  - tremolo bar dip; n = amount to dip
 \n  - tremolo bar down
 n/  - tremolo bar up
/n\  - tremolo bar inverted dip
 =   - hold bend; also acts as connecting device for hammers/pulls
 <> - volume swell (louder/softer)
 x   - on rhythm slash represents muted slash
 o   - on rhythm slash represents single note slash

Misc Legend
-----------
 |  - bar
||  - double bar
||o - repeat start
o|| - repeat end
*|  - double bar (ending)
 :  - bar (freetime)
 $  - Segno
 &  - Coda
Tempo markers -  = BPM(8/16=s8/s16), where s8 = swing 8ths, s16 = swing 16ths

Добавлено: 21.07.2012
Другие материалы по этой песне:

Страница создана 30.03.2012
http://primanota.ru/misc-computer-games/team-fortress-2-theme-chords.htm
Привет, Гость.
Предлагаем пройти революционный курс по гитаре.
Подарок от PrimaNota.Ru, забирай!