PrimaNota.ru - самый крупный в мире бесплатный архив песенных текстов, аккордов, табулатур и нот


Misc Computer Games - Survivors Under The Sky Ikari Team Ost King Of Fighters Xiv - таба, видео

Регистрация Запомнить меня
Войти через:  Facebook Google Twitter Vk Yandex Mail.ru

Misc Computer Games - Survivors Under The Sky Ikari Team Ost King Of Fighters Xiv - таба, видео

Печатать
Просмотров: 55
Уроки эстрадного вокала в Санкт-Петербурге
The 6th string must be dropped down to D


[Section A]

                                                    (Fret number ten)
e|--------------------|--------------------|--------------------|--------------------|
B|--------------------|--------------------|--------------------|--------------------|
G|--------------------|--------------------|--------------------|--------------------|
D|9-9-9---9-7-9\------|2-4/-7---7-7-7------|9-9-9---9-7-9\------|2-4/-10---10-10-10--|
A|9-9-9---9-7-9\------|2-4/-7---7-7-7------|9-9-9---9-7-9\------|2-4/-10---10-10-10--|
D|9-9-9---9-7-9\------|2-4/-7---7-7-7------|9-9-9---9-7-9\------|2-4/-10---10-10-10--|

e|--------------------|--------------------|--------------------|--------------------|
B|--------------------|--------------------|--------------------|--------------------|
G|--------------------|--------------------|--------------------|--------------------|
D|9-9-9---9-7-9\------|2-4/-7---7-7-7------|9-9-9---9-7-9\------|2-4/-10---10-10-10--|
A|9-9-9---9-7-9\------|2-4/-7---7-7-7------|9-9-9---9-7-9\------|2-4/-10---10-10-10--|
D|9-9-9---9-7-9\------|2-4/-7---7-7-7------|9-9-9---9-7-9\------|2-4/-10---10-10-10--|


[Section B]

The harmonics can sound different depending where you strike with your pick on your string. If you try to do 
the harmonic closer to the bridge is going to sound different than if you strike it closer to the neck.
So try to find the harmonic that you want.

e|-------------------|-------------------|------------------|-------------------|
B|-------------------|-------------------|------------------|-------------------|
G|-------------------|----------------hm-|------------------|-------------------|
D|-7-------7/9-7~----|-6/7/9/11/12-7--7~-|-5/7-------7/9-7~-|-6/7/9/11/12/14-7~-|
A|---5-5-5-----------|-------------------|-----5-5-5--------|-------------------|
D|-------------------|-------------------|------------------|-------------------|

e|--------------------|
B|--------------------|
G|--------------------|
D|2-4/-10---10-10-10--|
A|2-4/-10---10-10-10--|
D|2-4/-10---10-10-10--|

e|----------------|-----------------|-----------------|-------------------|
B|10--------------|-----------------|-----------------|-------------------|
G|-9b10pbr9-------|-9/10\9-7h9-7b8--|-6h7h9-6-hm------|-------------------|
D|----------------|------------7b8--|---------7\6-----|-6h7h9-6-hm--------|
A|----------------|-----------------|-----------------|---------7\5-------|
D|----------------|-----------------|-----------------|-------------------|

e|----------------------------|-------------------------------|
B|-------12----14b15-12-------|--------12-----17b19--17-12/15-|
G|-11h14----14----------11/14-|--11h14----14------------------|
D|----------------------------|-------------------------------|
A|----------------------------|-------------------------------|
D|----------------------------|-------------------------------|

e|-------12-----17b19pbr17--|-14h17p14----14-----------------------|
B|-12h15----15--------------|----------17----17--15h17p15----15~~--|
G|--------------------------|-----------------------------16-------|
D|--------------------------|--------------------------------------|
A|--------------------------|--------------------------------------|
D|--------------------------|--------------------------------------|


[Section C]

e|-------------------------------------------|------------------------------------------|
B|-------------------------------------------|------------------------------------------|
G|-14----------------------------------------|-14---------------------------------------|
D|----x12/14--x12/14--x12/14--16-12----------|----x12/14--x12/14--x12/14-16-12----------|
A|-------------------------------------------|------------------------------------------|
D|-------------------------------------------|------------------------------------------|

e|------------------------------------|-------------------14h15p14---------|
B|-----------14--15--14h15p14---------|-----------14--15-----------15------|
G|-14----14-------------------14--7---|-14----14---------------------14----|
D|---x12------------------------------|---x12------------------------------|
A|------------------------------------|------------------------------------|
D|------------------------------------|------------------------------------|

e|-------------------------------------------|------------------------------------------|
B|-------------------------------------------|------------------------------------------|
G|-14----------------------------------------|-14---------------------------------------|
D|----x12/14--x12/14--x12/14--16-12----------|----x12/14--x12/14--x12/14-16-12----------|
A|-------------------------------------------|------------------------------------------|
D|-------------------------------------------|------------------------------------------|

e|---------------------|------------------17~-|
B|----------13--15-18~-|------------15-17-----|
G|-------14------------|--------14------------|
D|-12--12--------------|------14--------------|
A|---15----------------|-14-17----------------|
D|---------------------|----------------------|


[Section D]

Listen very carefully to this section, the rhytm is complex but I tried to show it the best way possible.

e|---------------------|--------------------|---------------------|--------------------|
B|---------------------|--------------------|---------------------|--------------------|
G|---------------------|--------------------|---------------------|--------------------|
D|3-3-3-3---3-3-3------|5--------5---5-5-5--|3-3-3-3---3-3-3------|5--------5---5-5-5--|
A|3-3-3-3---3-3-3------|5--------5---5-5-5--|3-3-3-3---3-3-3------|5--------5---5-5-5--|
D|3-3-3-3---3-3-3------|5--------5---5-5-5--|3-3-3-3---3-3-3------|5--------5---5-5-5--|

e|---------------------|------------------|--------------------------------|
B|---------------------|------------------|--------------------------------|
G|---------------------|------------------|--------------------------------|
D|8-8-8-8---8-8-8------|-10---10\9\7------|10--10--12--12---12---12-12-12--|
A|8-8-8-8---8-8-8------|-10---8-\7\5------|10--10--12--12---12---12-12-12--|
D|8-8-8-8---8-8-8------|-10---------------|10--10--12--12---12---12-12-12--|

e|---------------------|--------------------|---------------------|--------------------|
B|---------------------|--------------------|---------------------|--------------------|
G|---------------------|--------------------|---------------------|--------------------|
D|3-3-3-3---3-3-3------|5--------5---5-5-5--|3-3-3-3---3-3-3------|5--------5---5-5-5--|
A|3-3-3-3---3-3-3------|5--------5---5-5-5--|3-3-3-3---3-3-3------|5--------5---5-5-5--|
D|3-3-3-3---3-3-3------|5--------5---5-5-5--|3-3-3-3---3-3-3------|5--------5---5-5-5--|

e|---------------------|----------------|--------------------------------|-----------------|
B|---------------------|----------------|--------------------------------|-----------------|
G|---------------------|----------------|--------------------------------|-14\-------------|
D|8-8-8-8---8-8-8------|10--10\9\7------|10--10--12--12---12---12-12-12--|-14\-------------|
A|8-8-8-8---8-8-8------|10--8-\7\5------|10--10--12--12---12---12-12-12--|-12\-------------|
D|8-8-8-8---8-8-8------|10--------------|10--10--12--12---12---12-12-12--|-----------------|


[Fret 12]

e|------------------------|------------------------|------------------------|-----------------|
B|------------------------|------------------------|------------------------|-----------------|
G|------------------------|------------------------|------------------------|-----------------|
D|-12-12-12---12---12-12--|-12-12-12---12---12-12--|-12-12-12---12---12-12--|-----------------|
A|-12-12-12---12---12-12--|-12-12-12---12---12-12--|-12-12-12---12---12-12--|-0--3--5--10--15-|
D|-12-12-12---12---12-12--|-12-12-12---12---12-12--|-12-12-12---12---12-12--|-0--3--5--10--15-|

2nd guitar
e|--------------------|--------------------|--------17-----------------------------|
B|-15h17h18----17-15--|-15h17h18----17-15--|--15-17-----18-20-15---13-13--15---15--|
G|----------17--------|----------17--------|---------------------------------------|
D|--------------------|--------------------|---------------------------------------|
A|--------------------|--------------------|---------------------------------------|
D|--------------------|--------------------|---------------------------------------|

e|--------------------|-------------------|--------17--------17---20-20--22---17--|---------------15-17-|
B|-15h17h18----17-15--|-15h17h18----17-15-|--15-17-----18-20----------------------|------------15-------|
G|----------17--------|----------17-------|---------------------------------------|--14h16h17~----------|
D|--------------------|-------------------|---------------------------------------|---------------------|
A|--------------------|-------------------|---------------------------------------|---------------------|
D|--------------------|-------------------|---------------------------------------|---------------------|

I hope you enjoy this tab. I recommend that you practice the rhytmic part and work on your harmonics.
I tried to write the sections so that it sounds closer to the song. But some parts can be played in different
ways. If you have any doubts, send me a message.



************************************

| /    Slide up
| \    Slide down
| ~    Vibrato
| h    Hammer-on
| b    Bend
| pbr  Pre-bend release
| p    Pull-off
| x    Dead note
| hm  Harmonic 

************************************
Добавлено: 25.09.2017
Другие материалы по этой песне:
  • Аккорды и текст

Страница создана 25.09.2017
http://primanota.ru/misc-computer-games/survivors-under-sky-ikari-team-ost-king-of-fighters-xiv-chords.htm
Привет, Гость.
Предлагаем пройти революционный курс по гитаре.
Подарок от PrimaNota.Ru, забирай!