PrimaNota.ru - самый крупный в мире бесплатный архив песенных текстов, аккордов, табулатур и нот


Misc Computer Games - Super Mario World - Title Screen - бас-таба, видео

Регистрация Запомнить меня
Войти через:  Facebook Google Twitter Vk Yandex Mail.ru

Misc Computer Games - Super Mario World - Title Screen - бас-таба, видео

Печатать
Просмотров: 66
Уроки эстрадного вокала в Санкт-Петербурге
Tile Screen - Bass Tab

Tuning: Standard

Note: This is from the Game Boy Advance game, "Super Mario 
World: Super Mario Advance 2."  This is the theme that plays 
when you're on the main title screen.

[x2]
G|------------------------------------------------------------|
D|------------------------------------------------------------|
A|-10----10--9--9----9----10----10--10--10----10--------------|
E|------------------------------------------------------------|

[x1]
G|------------------------------------------------------------|
D|------------------------------------------------------------|
A|-8----8--7--7----7----8----8--8--8----8---------------------|
E|------------------------------------------------------------|

G|------------------------------------------------------------|
D|------------------------------------------------------------|
A|-8----8-----------------------------------------------------|
E|---------10--10----11----12----12----12---------------------|

[x1]
G|-----12------12-----12------12-----12------12------12--14---|
D|-10--------------9--------------8--------------11-----------|
A|---------10-------------10-------------10-------------------|
E|------------------------------------------------------------|

G|---------14------14------14------14------14------14-----10--|
D|-----12--------------11--------------10--------------9------|
A|-12----------12--------------12--------------12-------------|
E|------------------------------------------------------------|

G|-12-----------------------------------------10--------------|
D|-----12--10--10----10----10---------------------------------|
A|-----------------------------10----8----10------10--10------|
E|------------------------------------------------------------|

G|------------------------------------------------------------|
D|------------------------------------------------------------|
A|-10----10--10----10----10----10----10--10----10----10--10---|
E|------------------------------------------------------------|

G|------------------------------------------------------------|
D|------------------------------------------------------------|
A|-10----8--7---------10---------9----------------------------|
E|---------------8----------8---------------------------------|


If there's any confusion, questions, or advice on how to 
improve it, please post a comment. Have fun playing, and 
please rate! -Rarrlow
Добавлено: 30.07.2014
Другие материалы по этой песне:
  • Аккорды и текст

Страница создана 30.07.2014
http://primanota.ru/misc-computer-games/super-mario-world-title-screen-chords.htm
Привет, Гость.
Предлагаем пройти революционный курс по гитаре.
Подарок от PrimaNota.Ru, забирай!