PrimaNota.ru - самый крупный в мире бесплатный архив песенных текстов, аккордов, табулатур и нот


Misc Computer Games - Super Mario World - Castle Theme - бас-таба, видео

Регистрация Запомнить меня
Войти через:  Facebook Google Twitter Vk Yandex Mail.ru

Misc Computer Games - Super Mario World - Castle Theme - бас-таба, видео

Печатать
Просмотров: 121
Super Mario World - Castle Theme

Tabbed by: Ashy (XxThreeCheersxX)
E-mail: burdickash@gmail.com

Tuning: Standard

Part I
G|--------------|
D|--------------|
A|--------------| x 8
E|-1--3~--------|

G|-----------------------------------------------|
D|-3--5--------3--5------------------------------|
A|-----------------------------------------------|
E|-------1--3--------1--3--1--3--4--2--3~--------|

Part II
G|-----------------------------------------------------------------------------------------|
D|-----------4----4----3----3----5----5----------------4--4--4--4--3--3--3--3--5--5--5--5--|
A|-3----3----------------------------------3--3--3--3--------------------------------------|
E|-----------------------------------------------------------------------------------------|

G|-----------------------------------------------------------------|
D|-----------------4-4-4-4-4-4-4-4-3-3-3-3-3-3-3-3-5-5-5-5-5-5-5-5-|
A|-3-3-3-3-3-3-3-3-------------------------------------------------| x 4
E|-----------------------------------------------------------------|

G|-----------------4-4-4-4-4-4-4-4-----------------5-5-5-5-5-5-5-5-|
D|-6-6-6-6-6-6-6-6-----------------5-5-5-5-5-5-5-5-----------------|
A|-----------------------------------------------------------------|
E|-----------------------------------------------------------------|

G|-2-2-2-2-2-2-2-2-------------------------------------------------|
D|-----------------4-4-4-4-4-4-4-4-----------------5-5-5-5-5-5-5-5-|
A|---------------------------------5-5-5-5-5-5-5-5-----------------|
E|-----------------------------------------------------------------|

Now repeat Part II minus the first line as much as you want!

Happy playing!

| /  slide up
| \  slide down
| h  hammer-on
| p  pull-off
| ~  vibrato
| +  harmonic
| x  Mute note
===============================================================================
Добавлено: 21.08.2015
Другие материалы по этой песне:

Страница создана 22.06.2012
http://primanota.ru/misc-computer-games/super-mario-world-castle-theme-chords.htm
Привет, Гость.
Предлагаем пройти революционный курс по гитаре.
Подарок от PrimaNota.Ru, забирай!