PrimaNota.ru - самый крупный в мире бесплатный архив песенных текстов, аккордов, табулатур и нот


Misc Computer Games - Super Mario World - Boss Battle - бас-таба, видео

Регистрация Запомнить меня
Войти через:  Facebook Google Twitter Vk Yandex Mail.ru

Misc Computer Games - Super Mario World - Boss Battle - бас-таба, видео

Печатать
Просмотров: 84
Новый альбом группы 'Черный Кузнец' по культовому сериалу 'Сверхъестественное'!
Super Mario World - Boss Battle

Tabbed by: Ash (XxThreeCheersxX)
email: burdickash@gmail.com


G|---------------------------|
D|----------10-----------11--|
A|-----10-----------11-------| x 4
E|-8------------9------------|

G|----------10-----------11--|
D|-----10-----------11-------|
A|-8------------9------------| x 2
E|---------------------------|

G|---------------------------|
D|----------10-----------11--|
A|-----10-----------11-------| x 2
E|-8------------9------------|

G|-----------------------------------------------|
D|-----------------------------------------------|
A|-----------------------------------------------|
E|-11-11--11--11----11--10-9-8-8--8--8----8--7-6-|

Repeat back to the beginning

Happy playing!

************************************

| x   Dead note
| g   Grace note
| (n) Ghost note
| h   Hammer-on
| p   Pull-off
| r   Release
| >   Accented note
| t   Tapping
| b   Bend
| br  Bend release
| pb  Pre-bend
| pbr Pre-bend release
| /   Slide up
| \   Slide down
| ~   Vibrato
| s   Slap
| P   Pop
| PM  Palm mute
| TR  Trill
| N   Tremolo

************************************
Добавлено: 18.03.2018
Другие материалы по этой песне:
  • Аккорды и текст

Страница создана 18.03.2018
http://primanota.ru/misc-computer-games/super-mario-world-boss-battle-chords.htm
Привет, Гость.
Предлагаем пройти революционный курс по гитаре.
Подарок от PrimaNota.Ru, забирай!