PrimaNota.ru - самый крупный в мире бесплатный архив песенных текстов, аккордов, табулатур и нот


Misc Computer Games - Super Mario World 2 Yoshis Island - The Flower Garden - бас-таба, видео

Регистрация Запомнить меня
Войти через:  Facebook Google Twitter Vk Yandex Mail.ru

Misc Computer Games - Super Mario World 2 Yoshis Island - The Flower Garden - бас-таба, видео

Печатать
Просмотров: 106
Уроки эстрадного вокала в Санкт-Петербурге
Yoshis Island - Flower Garden

Tabbed by: Ashy (XxThreeCheersxX)
E-mail: burdickash@gmail.com

Tuning: Standard

Part I (intro)
G|--------------------------12-12-----|
D|-10---------------------------------|
A|-----12--11--10----10-10--------10--|
E|------------------------------------|

Part II
G|----------------------------------------------|
D|-------------7-7----7-------------------------|
A|----------------------8----8----8-10-10----10-| x 6
E|-8----8----8----------------------------------|

G|-------------------------------------------------------------------------------------|
D|----------------------------------5-5----5-------------------------------------------|
A|-7----7----7-6-6----6-5----5----5----------7----7----7-6-6----6-5----5----5-4-4----4-|
E|-------------------------------------------------------------------------------------|

G|----------------------------------------------|
D|-------------7-7----7-------------------------|
A|----------------------8----8----8-10-10----10-| x 4
E|-8----8----8----------------------------------|

G|-------------------------------------------------------------------------------------|
D|----------------------------------5-5----5-------------------------------------------|
A|-7----7----7-6-6----6-5----5----5----------7----7----7-6-6----6-5----5----5-4-4----4-|
E|-------------------------------------------------------------------------------------|

Part III
G|----------------------------------------------------------------------------------------------|
D|---------------------------------------------------------------------------------------0-3-5--|
A|----------------------------------------------------------------------------------------------|
E|-6-6----(6)----6----6----5----5----5~--------5-4-4----------------4----3----3----3~-----------|

G|----------------------------------------------------------------------|
D|-----8---8---8-----7-----------7-----6---6---6--------------5---6---7-|
A|----------------------------------------------------------------------| x 2
E|-6-6---6---6---6-5---5~----------4-4---4---4---4-3--3~----3---4---5---|

Happy playing!

| /  slide up
| \  slide down
| h  hammer-on
| p  pull-off
| ~  vibrato
| +  harmonic
| x  Mute note
===============================================================================
Добавлено: 21.08.2015
Другие материалы по этой песне:

Страница создана 05.06.2014
http://primanota.ru/misc-computer-games/super-mario-world-2-yoshis-island-flower-garden-chords.htm
Привет, Гость.
Предлагаем пройти революционный курс по гитаре.
Подарок от PrimaNota.Ru, забирай!