PrimaNota.ru - самый крупный в мире бесплатный архив песенных текстов, аккордов, табулатур и нот


Misc Computer Games - Super mario song - таба, видео

Регистрация Запомнить меня
Войти через:  Facebook Google Twitter Vk Yandex Mail.ru

Misc Computer Games - Super mario song - таба, видео

Печатать
Просмотров: 100


the real way to play super mario and by mario (me)   if u see this * at end of the
meger that mean to reapet to the other line that ends with *


and this song is long kinda but its worth it soo practice hard and mybe u can
play it fast like me soo contact me at the bottom of the page plzzz at myspace.com or yahoo.com. thx

INTRO
e-12-12-12----12--15-----------------------------
b----------13-------------13------------12-------
g---------------------12-----12-----14-----14-12-
d--------------------------------14--------------
a------------------------------------------------
e------------------------------------------------

keep going
e-12-13-14-15---17---12--15--12---10-----
b----------------------------------------
g----------------------------------------
d----------------------------------------
a----------------------------------------
e----------------------------------------

keep going
e--------------------------------------------
b-13-----------12----------------------------
g----12-----14----14-12----------------------
d-------14-----------------------------------
a--------------------------------------------
e--------------------------------------------

keep going
e-12-13-14-15---17---12--15--12---10-----
b----------------------------------------
g----------------------------------------
d----------------------------------------
a----------------------------------------
e----------------------------------------

end of intro -
e-15-14-13-11-12-------------------------*
b-----------------------13----13--15-----*
g-----------------13-14----14------------*
d----------------------------------------*
a----------------------------------------*
e----------------------------------------*

e-15-14-13-11-12-----------------------
b--------------------20-20----------------
g--------------------20-20----------------
d----------------------------------------
a----------------------------------------
e----------------------------------------

e-15-14-13-11-12-----------------------
b-----------------------13----13--15-----
g-----------------13-14----14------------
d----------------------------------------
a----------------------------------------
e----------------------------------------

this part i just lift the pic under my index finger and hold it with it then
like finger pic this part. but i do that when i get to the 15 fret part and then the 13,14 part.
e-----------------------------------------*
b-16--15--13------------------------------*
g-13--------------------------------------*
d-----15--14------------------------------*
a-----------------------------------------*
e-----------------------------------------*

e---------------12------------------------
b-13-13-13--15----------------------------
g------------------14-12------------------
d-----------------------------------------
a-----------------------------------------
e-----------------------------------------

hold the 12 for a few seconds
e---------------12------------------------
b-13-13-13--15----------------------------
g-----------------------------------------
d-----------------------------------------
a-----------------------------------------
e-----------------------------------------

e---------------12------------------------
b-13-13-13--15----------------------------
g------------------14-12------------------
d-----------------------------------------
a-----------------------------------------
e-----------------------------------------

 then play the intro it will say intro on top and when it says end of intro dont play the melody below it.

e-12-----------------13-------------------
b----13-----------------------------------
g--------12-12-13-14----14----------------
d-----------------------------------------
a-----------------------------------------
e-----------------------------------------


e-----17-17-17-15-13-12-------------------
b-----------------------13----------------
g--16----------------------14-12----------
d-----------------------------------------
a-----------------------------------------
e-----------------------------------------

e-12-----------------13-------------------
b----13-----------------------------------
g--------12-12-13-14----14----------------
d-----------------------------------------
a-----------------------------------------
e-----------------------------------------


e----13-13-12-----------------------------
b-12-----------15--13---------------------
g----------------------12-----------------
d-------------------------14--------------
a----------------------------15-----------
e-----------------------------------------

finally the ending lol
e----------------7-5----6-4---------------
b-13-----------6------6-------5-3-5-------
g----12-----------------------------------
d--------14-------------------------------
a-----------------------------------------
e-----------------------------------------

well to contact me if anyproblem
for myspace- tacoland@yahoo.com
for yahoo-tacoland66@yahoo.com
but i like to say i lexie 

Добавлено: 17.11.2013
Другие материалы по этой песне:
  • Аккорды и текст

Страница создана 17.11.2013
http://primanota.ru/misc-computer-games/super-mario-song-chords.htm
Привет, Гость.
Предлагаем пройти революционный курс по гитаре.
Подарок от PrimaNota.Ru, забирай!