PrimaNota.ru - самый крупный в мире бесплатный архив песенных текстов, аккордов, табулатур и нот


Misc Computer Games - Super Mario Kart - Koopa Beach - бас-таба, видео

Регистрация Запомнить меня
Войти через:  Facebook Google Twitter Vk Yandex Mail.ru

Misc Computer Games - Super Mario Kart - Koopa Beach - бас-таба, видео

Печатать
Просмотров: 104
Уроки эстрадного вокала в Санкт-Петербурге
Super Mario Kart - Koopa Beach

Tabbed by: XxThreeCheersxX
E-mail: burdickash@gmail.com

Tuning: Drop D

Part I
G|-------------------------------------------------------------------|
D|-------------------------------------------------------------------|
A|-5-------5-5------------5-5-------2--3-------3-3-2-2-0--0-0--2--4--|
D|----7-7-------7-7-6--5-------5-5--------5-5------------------------|

G|----------------------------------------|
D|----------------------------------------|
A|-5-------5-5-------5--------------------|
D|----7-7-------7-7----0--0-0--2--4--5----|

Part II
G|-------------------------------------------------------------------|
D|-------------------------------------------------------------------|
A|-5-------5-5------------5-5-------0--1--1-1--1--1-1--0--0-0--2--4--|
D|----7-7-------7-7-6--5-------5-5-----------------------------------|

G|--------------------------------------------------------|
D|--------------------------------------------------------|
A|-5-------5-5--5------------------------------------0----|
D|----7-7---------0--3--3-3--3-3--3--2--2-2--2-2--2-------|

Part III
G|----------------------------------------------------|
D|----------------------------------------------------|
A|----------------------------------------------------|
D|-0--0-0--2--3--5--5-5--5--5-5--7--7-7--0--0-0--5----|

Happy playing!

| /  slide up
| \  slide down
| h  hammer-on
| p  pull-off
| ~  vibrato
| +  harmonic
| x  Mute note
===============================================================================
Добавлено: 23.05.2015
Другие материалы по этой песне:

Страница создана 20.04.2012
http://primanota.ru/misc-computer-games/super-mario-kart-koopa-beach-chords.htm
Привет, Гость.
Предлагаем пройти революционный курс по гитаре.
Подарок от PrimaNota.Ru, забирай!