PrimaNota.ru - самый крупный в мире бесплатный архив песенных текстов, аккордов, табулатур и нот


Misc Computer Games - Super Mario Brothers Theme - аккорды и текст, таба, бас-таба, видео

Регистрация Запомнить меня
Войти через:  Facebook Google Twitter Vk Yandex Mail.ru

Misc Computer Games - Super Mario Brothers Theme - аккорды и текст, таба, бас-таба, видео

Печатать
Просмотров: 835
Super Mario Brothers Theme
Misc Computer Games
                     The Super Mario Brothers Theme song!

                     Tabbed by Sean Connolly


        Heh,  When I was home sick for a week a while ago,  I figured
        this song out on the my keyboard... now I'm converting it over
        to guitar...  I'm sorta newer to the guitar,  so chill if this
        sucks. :-)
        
Part 1

e|------------------------3---|----------------------|----------------------|
B|------------------------3---|------1---------------|----------------------|
G|------------------------0---|--r-------r--0--------|----2---4-3---2-------|
D|---2----2-----2----2--------|------2------------2--|-r--3---5-4---3-------|
A|---0---(2)-------3----------|-------------3--------|----------------------|
E|---2---(2)--------------3---|-------------------0--|----------------------|

e|--------------------|------------------|----------------------------------|
B|-------5---8----10--|----------5-------|-0--------------------------------|
G|--0-----------------|--10--8-------5---|-------0--------------------------|
D|--2-----------------|------------------|-0--------------------------------|
A|-----------------8--|------7---3-------|----------------------------------|
E|--0-----------------|---8--------------|-------3--------------------------|Part 2

e|----------------------|----------------------------|----------------------|
B|----------------------|----------------------------|----------------------|
G|----------------------|----------------------------|----------------------|
D|-------5-4----3----1--|--2----------------------0--|-------5--4--3--1---3-|
A|-3------(3))-------3--|--------1----3---0----3-----|---3----------------2-|
E|--------------3-------|--1-------------------1-----|----------------------|

e|--1--1--1------|------------------|-----------------------|------------0--|
B|--1--1--1------|------------------|-----------------------|--1----3----1--|
G|--0--0--0----r-|------------------|-----------------------|--1-r--3-r--0--|
D|--3--3--3------|------5--4--3---1-|-2------------------0--|--1----3----2--|
A|---------------|--3-------------3-|------1--3---0---3-----|------------3--|
E|---------------|------------3-----|-1---------------1-----|------------0--|


Part 3

e|--------------------|-0----------------|----------------------0-----------|
B|-1-----1----1-1--3--|-1---3------------|--1--1----1--1---3----1-----------|
G|-1-----1----1-1--3--|-0------2--0------|--1--1----1--1---3----0-----------|
D|-1-----1----1-1--3--|------------------|--1--1----1--1---3----2-----------|
A|--------------------|-3---------3------|----------------------3---3-------|
E|--------------------|---------------3--|-----------------------------3----|


e|-----------------------|--0---------------|-----------------3-------------|
B|--1---1----1--1---3----|--1--1------------|-----------------3---0---------|
G|--1---1----1--1---3----|--0-----2--0------|-----------------0-------0-----|
D|--1---1----1--1---3----|------------------|-2---2--2-----2------0---------|
A|-----------------------|--3--------3------|-0---------3-------------------|
E|-----------------------|---------------3--|-2---------------3-------3-----|


Part 3
                                                                
e|--0-----------------|-------1-1----------------|--5--5--5----3---1--------|
B|-----1--------------|------------------------0-|--6--6--6----5---3--------|
G|----------0-----1---|---2---------2----------0-|--------------------------|
D|--------------------|---3-----------------3--0-|--------------------------|
A|--3-------------3---|-------------3---3--------|--------------------------|
E|----------3---------|--------------------------|--------------------------|

e|-0--------------------|---0--------------|------1--1----------------------|
B|-1--------------------|------1-----------|---------------------------0----|
G|-0------2--0----------|----------0----1--|--2---------2--------------0----|
D|----------------------|------------------|----------------------3----0----|
A|-3---------3---3------|---3-----------3--|------------3---3---------------|
E|-------------------3--|----------3-------|--1-----------------------------|

e|---1--1--1----0-----|--0--------------------------------------------------|
B|---3--3--3----1--3--|--1--------------------------------------------------|
G|-----------------0--|--2--------------------------------------------------|
D|--------------------|--0--------------------------------------------------|
A|--------------------|--3--------------------------------------------------|
E|--------------------|-----------------------------------------------------|Done.  Figured it out all by meself. :-)

Mail me if you want more NINTENDO Tab.  8-Bit Games only. :-)
I'm going to do a lot more,  like SMB 2 Tab and some Zelda tab...
And if you have any 8-bit games,  and you just want to get rid of 'em...
email me and I'll take 'em off your hands. ;)  hehehe,  anyways...

Thanks for reading.  All Flames and Compliments welcome...

Sean Connolly
(Decrepit Lead Guitarist)
mozart@epix.net===========


Nintendo - Mario Theme Song
Submitted By: DJ Mastabata G
EMail: djmastabatag@msn.com


Tuning: Standard (E A D G B E)

its an easy song once you get the hang of itE|---0-0-0---0-3---------
B|---------1-------------
G|---------------0-------
D|-----------------------
A|-----------------------
E|-----------------------


E|-------------------0-3-5-1-3-0----------||
B|---1-------0-------------------1-3-0----||
G|-----0---2---3-2-0----------------------||
D|-------2--------------------------------|| *repeat this part
A|----------------------------------------||
E|----------------------------------------||
Добавлено: 14.03.2012
Другие материалы по этой песне:

Страница создана 14.03.2012
http://primanota.ru/misc-computer-games/super-mario-brothers-theme-chords.htm
Привет, Гость.
Предлагаем пройти революционный курс по гитаре.
Подарок от PrimaNota.Ru, забирай!