PrimaNota.ru - самый крупный в мире бесплатный архив песенных текстов, аккордов, табулатур и нот


Misc Computer Games - Super Mario Bros 2 Overworld - бас-таба, видео

Регистрация Запомнить меня
Войти через:  Facebook Google Twitter Vk Yandex Mail.ru

Misc Computer Games - Super Mario Bros 2 Overworld - бас-таба, видео

Печатать
Просмотров: 81
Новый альбом группы 'Черный Кузнец' по культовому сериалу 'Сверхъестественное'!
Super Mario Bros 2 - Overworld Theme

Tabbed by: Ash (XxThreeCheersxX)
E-mail: burdickash@gmail.com

Tuning: Standard

Play this with a swing!  Happy playing!

Note: this is the bassline, not the melody.

Part I
G|-7-6-5-4----------7--------|
D|---------5--------------5--|
A|-----------8-7-5-----5-----|
E|---------------------------|

Part II
G|------------------------------------------------------------------------------------------------|
D|----5-----5-----5-----5-----5-----5-----5-----5-----3-----4-----5-----7-----3-------------------|
A|-3-----3-----2-----2-----------------------------------------------------5--------5--3-----3----|
E|-------------------------6-----6-----5-----5-----1-----2-----3-----5-----------3--------3-------|

Part III
G|-------------2------------------------------------|
D|-------2--5-----5--2--------2--4------------------|
A|-3--5-----------------3--5-----------5-5-3--2--0--|
E|----------------------------------2---------------|

G|--------------------------------------------------|
D|----5--3------------------------------------------|
A|----------5--2-----0--2--3--4--5--6--7---------2--|
E|-3--------------3----------------------7-5--3-----|

G|-------------2------------------------------------|
D|-------2--5-----5--2--------2--4------------------|
A|-3--5-----------------3--5-----------5-5-3--2--0--|
E|----------------------------------2---------------|

G|-----------------------------------------------|
D|----5--3---------------------------------------|
A|----------5--2-----0--2--3-----0--2--3----3----|
E|-3--------------3-----------3------------------|

Part IV
G|----4--1--------------------------------------------------2--------------------------------------|
D|-2--------3--2--0--------------------2-----------0--2--4-----0-----0--4--5--3--0-----0-----------|
A|-------------------2-----0--2--3--5-----3--2--0-----------------0-----------------2-----2--0-----|
E|----------------------4-----------------------------------------------------------------------3--|

Repeat back to Part II

| /  slide up
| \  slide down
| h  hammer-on
| p  pull-off
| ~  vibrato
| +  harmonic
| x  Mute note
===============================================================================
Добавлено: 18.03.2018
Другие материалы по этой песне:
  • Аккорды и текст

Страница создана 18.03.2018
http://primanota.ru/misc-computer-games/super-mario-bros-2-overworld-chords.htm
Привет, Гость.
Предлагаем пройти революционный курс по гитаре.
Подарок от PrimaNota.Ru, забирай!